Marilyn Manson - Luci In The Sky With Demons Chords & Tabs

 

Luci In The Sky With Demons Chords & Tabs

Marilyn Manson Chords & Tabs

Version: 1 Type: Tab 0 ratings
1 star 2 stars 3 stars 4 stars 5 stars
comments

Luci In The Sky With Demons Tab

Luci In The Sky With Demons by Marilyn Manson
Guitarist: Daisy Berkowitz
Album: 
Dif.: 6
Tabbed by Twiggy5

NOTE: I don’t know what album this is off I think it’s like a little stupid demo thing that Manson did when he was just starting out but I just got it off Napster and I noticed the tab I’ve seen of this song is all fucked up and wrong.... So like all guitarists I decided to do it myself.

Intro (Keyboard arr. for Gtr) (clean)
B|-------5-3--------5-3-------5-3-5-3-5-3--|
G|-2-3--------2-3-------2-3----------------|

Intro 2 (w/ dist.)
A|-2-2-2-2-5--2-2-2-2-8-5--2-2-2-2-5--7-5--3/5--
E|-0-0-0-0-3--0-0-0-0-6-5--0-0-0-0-3--5-3-------

Intro 2 (cont.)
A|-2-2-2-2-5--2-2-2-2-8-7--2-2-2-2-5--7-5--7\5--|
E|-0-0-0-0-3--0-0-0-0-6-5--0-0-0-0-3--5-3-------|

Fill 1
D|-2----------------------|
A|-2----------------------|
E|-0----------------------|

Verse								   *  turn dist. on
D|------5-7--|-------------9-7-|----|-------------------|-------------|
A|------3-5--|-------------7-5-|-2x-|-0-----------------|------///19--|
NOTE: These chords match up with what the bass is playing because the bass is just playing the intro 2 riff... Now there’s also another way you can play the verse and that’s just to play the Intro 2 riff clean with single notes except on the A notes play chords.. I don’t know... Both ways sound ok
[ Tab from: http://www.guitartabs.cc/tabs/m/marilyn_manson/luci_in_the_sky_with_demons_tab.html ]
Riff 1 (clean)
D|--9-------------------------|
A|--9-------------------------|
E|--7-------------------------|
NOTE: The timing isn’t right, I mean you can figure it out yourself and it just matches up with what the bass is playing....

Fill 2 (w/dist)
D|-9--------------------|-------////21---|
A|-9--------------------|----------------|
E|-7--------------------|----------------|

Bridge
A|--7-5----------7--5-------5----7-5--------7--5-------------|
E|--------6-5-3--------6--5-----------6-5-3-------6--5-6-5--|

Riff 2 (“Cut, cut, cut..”)
D|-5-5-5-5-5-5-5-8-7--|
A|-5-5-5-5-5-5-5-8-7--|
E|-3-3-3-3-3-3-3-6-5--|

Riff 2 (cont.) (“I’ll be your devil..”)
D|-2-2-2-2-2-2-2-8-7--|
A|-2-2-2-2-2-2-2-8-7--|
E|-0-0-0-0-0-0-0-6-5--|

Fill 3
D|-8-7-8-7-8-7-8-7-8-7-8-7-8-7-8-7--|
A|-8-7-8-7-8-7-8-7-8-7-8-7-8-7-8-7--|
E|-6-5-6-5-6-5-6-5-6-5-6-5-6-5-6-5--|

Fill 4
A|-7-7-7-7-7-7-7-7-7-7-7-7-7-7-7-7--|
E|-0-0-0-0-0-0-0-0-0-0-0-0-0-0-0-0--|

Ending
D|--8---7---8---7---8---7---8---7---8---7--|
A|--8---7---8---7---8---7---8---7---8---7--|
E|--6---5---6---5---6---5---6---5---6---5--|

Song Structre: -
Intro 1
Intro 2
Fill 1
Verse
Intro 2
Fill 1
Riff 1
Fill 2
Bridge
Riff 2
Bridge
Bridge (w/wah)
Fill 3
Intro 2
Fill 4
Riff 2
Ending

There ya go... That’s much better than the one that I keep seeing all over this internet thing a ma jig... ya know what I’m saying.. If you have any comments, corrections, or suggestions email me at ToXic345x@yahoo.com

Comments