Marilyn Manson - Long Hard Road Out Of Hell Chords & Tabs

 

Long Hard Road Out Of Hell Chords & Tabs

Marilyn Manson Chords & Tabs

Version: 1 Type: Tab 0 ratings
1 star 2 stars 3 stars 4 stars 5 stars
comments

Long Hard Road Out Of Hell Tab

   
Song: Long Hard Road Out of Hell
Artist: Marilyn Manson and The Sneaker Pimps
Album: "Spawn" Soundtrack
As tabbed by Joe Muggah
joe_the_man3@hotmail.com

Intro 1 (violin arranged for guitar)
e--12----15--------15-------------15-----------------------
B----------------------------------------------------------
G----------------------------------------------------------
D--14\---12---12---15---15---15---14-----------------------
A----------------------------------------------------------
E----------------------------------------------------------

Intro 2 (acoustic guitar)
e----------------------------------------------------------
B----------------------------------------------------------
G--------------------------0-------------------------------
D------8---------8-\---3-----------------------------------
A--7----------7--------------------------------------------
E----------------------------------------------------------

Verse (acoustic guitar each hit 8 times)
e----------------------------------------------------------
B----------------------------------------------------------
G--9---12---10---9---9---12---10---9-----------------------
D--9---12---10---9---9---12---10---9-----------------------
A--7---10----8---7---7---10----8---7-----------------------
E----------------------------------------------------------
("Mary...Mary...")

Pre-Chorus
e------21-------17-----------------------------------------
B--19-------19-------19--20--19----------------------------
G----------------------------------------------------------
D----------------------------------------------------------
A----------------------------------------------------------
E----------------------------------------------------------
("I wanna live...")

Chorus A (Guitar 1, each hit 2 times with distortion)
e----------------------------------------------------------
B----------------------------------------------------------
G--9-9-9-9--12-12-12-12--10-10-10-10--9-9-9---9------------
D--9-9-9-9--12-12-12-12--10-10-10-10--9-9-9---9------------
A--7-7-7-7--10-10-10-10---8--8--8--8--7-7-7---7------------
E----------------------------------------------------------
[ Tab from: http://www.guitartabs.cc/tabs/m/marilyn_manson/long_hard_road_out_of_hell_tab.html ]
Chorus B (Guitar 2)
e--12--12--12--15--15--15--15\13--13--13-------------------
B----------------------------------------------------------
G----------------------------------------------------------
D----------------------------------------------------------
A----------------------------------------------------------
E----------------------------------------------------------

Outro A (Guitar 1)
e----------------------------------------------------------
B----------------------------------------------------------
G--9-9-9-7-9--x--x-x-x-x-x--9-9-7--------------------------
D--9-9-9-7-9--x--x-x-x-x-x--9-9-7--8--5-7-2----------------
A--7-7-7-5-7--x--x-x-x-x-x--7-7-5--8--5-7-2----------------
E----------------------------------6--3-5-0----------------

Outro B (Guitar 2)
e-------------15^---------------15^------------------------
B--17^---------------17^-----------------------------------
G--------16----------------16------------------------------
D----------------------------------------------------------
A----------------------------------------------------------
E----------------------------------------------------------

Outro C (Guitar 3)         Outro D (Guitar 2)
e-------------------------|------------18^-------------18^-
B-------------------------|--17^-------------17^-----------
G--9^----9^----9^----9^---|--------16--------------16------
D--x-----x-----x-----x----|--------------------------------
A--7^----7^----7^----7^---|--------------------------------
E-------------------------|--------------------------------

Intro 1
Intro 2
Verse 
Verse, Pre-Chorus
Chorus A, B
Verse (palm muted)
Verse (palm muted), Pre-Chorus
Chorus A
Intro 2
Verse, Pre-Chorus
Chorus A, B
Outro A, B
Outro A, C, D
===========          Long Hard Road Outta Hell

          Tabbed by Suicidal

          Intro( played with acou.guitar )

          E--------------
          B--------------
          G----3----3----(rep.till chorus)
          D--2----2---5--

          Chorus

          E--------------------------------------------
          B--------------------------------------------
          G--------------------------------------------
          D--3-3-3-3-3-3-3-3-6-6-6-6-6-6-6-6-4-4-4-4-4-4-4-4-3-3-3-3-3-3-3-3
          A--3-3-3-3-3-3-3-3-6-6-6-6-6-6-6-6-4-4-4-4-4-4-4-4-3-3-3-3-3-3-3-3
          E--1-1-1-1-1-1-1-1-4-4-4-4-4-4-4-4-2-2-2-2-2-2-2-2-1-1-1-1-1-1-1-1

          Fill 1 (part comes after 4 min )

          E----------------------------------------
          B-----------------------------------------
          G--9--9--7--9--X-X-X-X-X-X--9-9-7-5--------
          D--9--9--7--9--X-X-X-X-X-X--9-9-7-5--------
          A--7--7--5--7--X-X-X-X-X-X--7-7-5-3-------
          E-----------------------------------0-3-0-
Comments