Marilyn Manson - Long Hard Road Out Of Hell Chords & Tabs

 

Long Hard Road Out Of Hell Chords & Tabs

Marilyn Manson Chords & Tabs

Version: 2 Type: Bass Tab 0 ratings
1 star 2 stars 3 stars 4 stars 5 stars
comments

Long Hard Road Out Of Hell Bass Tab

   
Long Hard Road Out of Hell - Marilyn Manson

By: Jon Craven (i_apathy@hotmail.com)
For questions, comments, feedback, an outline of the timing, write the above
address.

Notes:
  -Played with a pick.
  -The tempo seems between 124 and 125 bpm; using a metrinome, you'll notice
it seems off.

(4/4)(124 bpm)
Standard tuning

Verse (chorus): (x6)(0:23)
|----------------|----------------|----------------|----------------|
|----------------|----------------|----------------|----------------|
|----------------|----------------|----------------|----------------|
|0-0-0-0-0-0-0-0-|3-3-3-3-3-3-3-3-|1-1-1-1-1-1-1-1-|0-0-0-0-0-0-0-0-|

Chorus (x4)
Rest for four measures
Verse (x6)
Chorus (x2)
Rest for eight meausres
Verse (x2)
Chorus (x4)

Outro: (x6)(3:52)
|----------------|----------------|
|----------------|----------------|
|7-7-5-7---7-7777|7-7-5-----------|
|----------------|------6---0-3-0-|
[ Tab from: http://www.guitartabs.cc/tabs/m/marilyn_manson/long_hard_road_out_of_hell_btab_ver_2.html ]
Rest till end
===========          Song: "Long Hard Road Out Of Hell" (Bass Tab)
          By: Marilyn Manson and The Sneaker Pimps
          From the "Spawn" Original Motion Picture Soundtrack
          Lyrics: Manson/Music: Ramirez
          Tabbed By: Damian
          E-Mail: lunchbox_of_daisy@hotmail.com
          Tuning: Standard Tuning, lowest to highest: E,A,D,G

          Main Figure:(Intro,Verse,Prechorus,Chorus)

          G-|----------------------------------------------------------
          D-|----------------------------------------------------------
          A-|----------------------------------------------------------
          E-|-0-0-0-0-0-0-0-0--3-3-3-3-3-3-3-3--1-1-1-1-1-1-1-1--0-0-0-

          G-|-----------
          D-|-----------
          A-|-----------
          E-|-0-0-0-0-0-

          Repeat for a countless number of times. Then, finally there's
          this, the outro.

          Outro:
          G-|-----------------------------------
          D-|-----------------------------------
          A-|-8-8-8-----8--8-8--7-7-7-----------
          E-|--------8----------------7---1-2-1-
Comments