Marilyn Manson - Little Horn Chords & Tabs

 

Little Horn Chords & Tabs

Marilyn Manson Chords & Tabs

Version: 4 Type: Bass Tab

Little Horn Bass Tab

   
-------------------------------------------------------------------------------
			  LITTLE HORN - Marilyn Manson
-------------------------------------------------------------------------------

Tabbed By : bassmasta_saxman
e-mail: read2906@hotmail.com (any suggestions/comments feel free to email me)

Tuning: Drop D

Guitar and vocal intro

Verse (@ 0:28):

G|-----------------------------------------------------------|
D|-----------------------------------------------------------|
A|-----------------------------------------------------------| x2
D|-3-0-0-3-0-0-3-0-0-3-0-5--3-0-0-3-0-0-3-0-0-3-0-0-6-5-3----|

Prechorus:

G|----------------------|
D|----------------------|
A|----------------------| x3
D|-6--6--6--6--6-5-3-5--|

G|-----------------------|
D|-----------------------|
A|-----------------------|
D|-6--6--6--6-/-18-18-18-|

Chorus:

G|---------------------------------------------------------------------------|
D|---------------------------------------------------------------------------|
A|---------------------------------------------------------------------------| x2
E|-0~-0-6-3--5--1--3-0-0-3-0-0-3-0-0-3-0-0-3-0-5-----------------------------|

Break:

G|---------|
D|---------|
A|---------|
D|-5~~~~~~-|

G|-----------------------------------------------------------|
D|-----------------------------------------------------------|
A|-----------------------------------------------------------| x2
D|-3-0-0-3-0-0-3-0-0-3-0-5--3-0-0-3-0-0-3-0-0-3-0-0-6-5-3----|

Prechorus:

G|----------------------|
D|----------------------|
A|----------------------| x3
D|-6--6--6--6--6-5-3-5--|

G|-----------------------|
D|-----------------------|
A|-----------------------|
D|-6--6--6--6-/-18-18-18-|

Chorus:
[ Tab from: http://www.guitartabs.cc/tabs/m/marilyn_manson/little_horn_btab_ver_4.html ]
G|---------------------------------------------------------------------------|
D|---------------------------------------------------------------------------|
A|---------------------------------------------------------------------------| x2
E|-0~-0-6-3--5--1--3-0-0-3-0-0-3-0-0-3-0-0-3-0-5-----------------------------|

Break:

G|---------|
D|---------|
A|---------|
D|-5~~~~~~-|

Bridge:

G|---------------------------------------------------------------------------|
D|---------------------------------------------------------------------------|
A|----------3--5~-----------3------------------------------------------------|
D|-6--5--3---------6--5--3-----0-0-0-----------------------------------------|

G|---------------------------------------------------------------------------|
D|---------------------------------------------------------------------------|
A|----------3--5~-----------3------------------------------------------------|
D|-6--5--3---------6--5--3-----0-0-0-0-0~~~~---------------------------------|

Rest until 2:13 then verse:

G|-----------------------------------------------------------|
D|-----------------------------------------------------------|
A|-----------------------------------------------------------| x2
D|-3-0-0-3-0-0-3-0-0-3-0-5--3-0-0-3-0-0-3-0-0-3-0-0-6-5-3----|

Chorus:

G|---------------------------------------------------------------------------|
D|---------------------------------------------------------------------------|
A|---------------------------------------------------------------------------| x2
E|-0~-0-6-3--5--1--3-0-0-3-0-0-3-0-0-3-0-0-3-0-5-----------------------------|

Break:

G|----------|
D|----------|
A|----------|
D|-5~~~~~~3-|

END


| /  slide up
| \  slide down
| h  hammer-on
| p  pull-off
| ~  vibrato
| +  harmonic
| x  Mute note
===============================================================================