Marilyn Manson - Let Your Ego Die Chords & Tabs

 

Let Your Ego Die Chords & Tabs

Marilyn Manson Chords & Tabs

Version: 1 Type: Bass Tab 0 ratings
1 star 2 stars 3 stars 4 stars 5 stars
comments

Let Your Ego Die Bass Tab

Let Your Ego Die - Marilyn Manson
Jon Craven (nojnevarc@hotmail.com; www.geocities.com/larsramirez2001)

Intro:
G:------------|------------|-----------------|-----------------|-----------------|------------------|
D:------------|------------|-----------------|-----------------|-7-7-7-7-7-7-7-7-|-7-7-7-7-7-7-7-7/-|
A:-R--R--R--R-|-R--R--R--R-|-5-5-5-5-5-5-5-5-|-5-5-5-5-5-5-5-5-|-----------------|------------------|
E:------------|------------|-----------------|-----------------|-----------------|------------------|

G:------------|------------|------------|------------|------------|------------|------------|
D:------------|------------|------------|------------|------------|------------|------------|
A:-R--R--R--R-|-R--R--R--R-|-R--R--R--R-|-R--R--R--R-|-R--R--R--R-|-R--R--R--R-|-R--R--R--R-|
E:------------|------------|------------|------------|------------|------------|------------|

G:-------------|
D:-------------|
A:-R--R--R--7\-|
E:-------------|

Riff 1: (x8)
G:---------------|----------------|
D:---------5-----|-7------5h7-5h7-|
A:-5--5-5----5-5-|----5-5---------|
E:---------------|----------------|

Fill:
G:------------|------------|------------|-------------|
D:------------|------------|------------|-------------|
A:------------|------------|------------|-------------|
E:-7--7--7--7-|-3--0--3***-|-7--7--7--7-|-3--0--3-/9\-|

Riff 1 (x2)

Riff 2: (x2)
G:------------|------------|------------|---------------|
D:------------|------------|------------|-7--0-0-7-0--7-|
A:------------|------------|------------|---------------|
E:-7--7--7--7-|-3--3--3--3-|-5--5--5--5-|---------------|

Riff 3: (x4)
G:----------------|--------5--5-|----------------|--------7--7-|
D:-----------5----|-------------|-----------5----|-------------|
A:-5--5--5h8---8*-|-8-8-8-------|-5--5--5h8---8*-|-8-8-8-------|
E:----------------|-------------|----------------|-------------|
[ Tab from: http://www.guitartabs.cc/tabs/m/marilyn_manson/let_your_ego_die_btab.html ]
Fill 2:
G:------------|------------|------------|------------|
D:------------|------------|------------|------------|
A:-5--5--5--5-|-5--5--5--5-|-3--3--3--3-|-3--3--3--3-|
E:------------|------------|------------|------------|

Riff 4: (x3)
G:-----------------|-----------------|---------------|------------|
D:-----------------|-----------------|---------------|------------|
A:-0-0-0-0-0-0-0-0-|-3-3-3-3-3-3-3-3-|-5-5-5-3-3-3-5-|-**-3--5--3-|
E:-----------------|-----------------|---------------|------------|

Riff 5:
G:-----------------|-----------------|---------------|----7-7-7-7-5---|
D:-----------------|-----------------|---------------|--------------7-|
A:-0-0-0-0-0-0-0-0-|-3-3-3-3-3-3-3-3-|-5-5-5-3-3-3-5-|-**-------------|
E:-----------------|-----------------|---------------|----------------|

Riff 4 (x4)
Riff 2

Riff 6:
G:------------|------------|------------|-------------|
D:------------|------------|------------|-7--0-0-7***-|
A:------------|------------|------------|-------------|
E:-7--7--7--7-|-3--3--3--3-|-5--5--5--5-|-------------|

Riff 3 (x3)

Riff 7:
G:----------------|--------5--5-|----------------|--------7-5-7-|
D:-----------5----|-------------|-----------5----|--------------|
A:-5--5--5h8---8*-|-8-8-8-------|-5--5--5h8---8*-|-8-8-8--------|
E:----------------|-------------|----------------|--------------|

Riff 3 (x4)

Riff 8: (x3)(fades after 2x)
G:--------------|----------|-----------|----16----16****-|
D:----------5---|----------|-----------|-----------------|
A:-5***-5h8---8-|-********-|-14*******-|-14----14--------|
E:--------------|----------|-----------|-----------------|

End: (fading from before)
G:----------|----------|----------|----------|------------|------------|
D:----------|----------|-9*******-|-********-|-R--R--R--R-|-R--R--R--R-|
A:-5*******-|-********-|----------|----------|------------|------------|
E:----------|----------|----------|----------|------------|------------|
Comments