Marilyn Manson - Learning To Swim Chords & Tabs

 

Learning To Swim Chords & Tabs

Marilyn Manson Chords & Tabs

Version: 1 Type: Tab 0 ratings
1 star 2 stars 3 stars 4 stars 5 stars
comments

Learning To Swim Tab

          Song: Learning to Swim
          Artist: Marilyn Manson 
          Written by: ? (Daisy?)
          Lyrics by: Marilyn Manson
          Album: Marilyn Manson and the Spooky kids "Family Jams"
          Tabed by Per "Pogo" Stenberg
          fanta98@hotmail.com
          
          This one of the best Manson song ever!!!!!
          Only "Man that you fear" and "Coma white" beats this one!!!!
          I think this is correct. and the intro I'm 100% on!
          and don't try to copy this song! I know i was the first one to tab it!
          This song has ALOT of littel solos, I will trie to tab them all...
          
          
          Intro (This intro rocks!)
          
          -2-----------2-------------2-----------2-------------
          -2-----------3---------3---2-----------3-/5-3-2-2-2--
          -3-----------2---2---2---2-3-----------2------------3
          -4-----------0-0---0-------4-----------0-------------
          -4---4---4-4---------------4---4---4-4---------------
          -2-2---2-------------------2-2---2-------------------
          
          
          -----------------------------
          -2-3-3-5-3-2-2---2-3-3-5-3-2~
          ---------------3-------------
          -----------------------------
          -----------------------------
          -----------------------------
          
          
          Littel bridge
          
          ------------
          ------------
          ------------
          ------------
          -------7-5-5
          -9-7-7------
          
          
          Verse (This part was where hard to hear)
          Palm muted
          
          --------------------------
          --------------------------
          ----------------9----9----
          -11-11-11-11-11-9-11-9-11-
          -11-11-11-11-11-7-11-7-11-
          -9--9--9--9--9----9----9--
          
          Solo 1 (You can hear it in the begning of the verse)
          
          ----11-11-12----
          -9~----------9\-
          ----------------
          ----------------
          ----------------
          ----------------
          
          Solo 2 (just play this note realy fast and use alot of vibrations)
          
          -----------
          9999999999-
          -----------
          -----------
          -----------
          -----------
          
          Solo 3 (This the big one, you can do it, it is easy)
          
          -----------12-15~-17-17p14p12h17p14p12h17p14p12-
          -9-12~-9-7--------------------------------------
          ------------------------------------------------
          ------------------------------------------------
          ------------------------------------------------
          ------------------------------------------------
          
          
          -17-14-12-14-12--12
          ---------------15--
          -------------------
          -------------------
          -------------------
          -------------------
          
          Now you are wondering were the rest of this fucking solo is...
          Well, I can hear what the F*ck Daisy is playing?
          Do it your self!
          I have done the hardest parts the rest is of the solo
          Daisy is just holding a coupel of notes...
          
          
          Solo 4 (This while the intro riff is playing again)
          First they play the old solo part...
          
          ----------------------------
          -/5-3-2-2-2---2-3-3-5-3-2-2~
          ------------3---------------
          ----------------------------
          ----------------------------
          ----------------------------
          
          
          Then a new solo bit...
          
          ---2~------------2~--------------------
          -2---2-2-3-5-3-2---2-2-3-5-3-2---------
          -------------------------------4~-2~-4~
          ---------------------------------------
          ---------------------------------------
          ---------------------------------------
          
          Play the last tones over again...
          
          Hope this tab helped!
          
          9 June 2001 15.37
[ Tab from: http://www.guitartabs.cc/tabs/m/marilyn_manson/learning_to_swim_tab.html ]
Comments