Marilyn Manson - Lamb Of God Chords & Tabs

 

Lamb Of God Chords & Tabs

Marilyn Manson Chords & Tabs

Version: 2 Type: Tab 0 ratings
1 star 2 stars 3 stars 4 stars 5 stars
comments

Lamb Of God Tab

By:Paul West
Verse 1
e|-----------0------------0--0--------------------------------------------------|
B|-----------1------------0--0--------------------------------------------------|
G|-----------2------------4--2--------------------------------------------------|
D|------2----2------------5--3--------------------------------------------------|
A|---0-------0--------5---5--3--------------------------------------------------|
E|-----------------3------3--1--------------------------------------------------|Play verse Twice
Outro
e|---------------------------------------------------------------------------|
B|---------------------------------------------------------------------------|
G|--------------------7--7----7-9--------------7-----------------------------|
D|--------7---7-9-10-------10-----7-7---7-9-10---10-9-7----------------------|
A|---------------------------------------------------------------------------|
E|---------------------------------------------------------------------------|
[ Tab from: http://www.guitartabs.cc/tabs/m/marilyn_manson/lamb_of_god_tab_ver_2.html ]
Comments