Marilyn Manson - King Kill 33 Chords & Tabs

 

King Kill 33 Chords & Tabs

Marilyn Manson Chords & Tabs

Version: 1 Type: Tab 0 ratings
1 star 2 stars 3 stars 4 stars 5 stars
comments

King Kill 33 Tab

Marylin manson, King kill 33.
Tabbed by JNS,no e-mail.
  
Best song of the album( that's all i wanna say)

Intro
e---------------------------------------
b---------------------------------------
g---------------------------------------
d---------------------------------------
a---3---5----5---3----3---5-------------
E----------------------------4---1--1--1

Riff one

e---------------------------------------
b---------------------------------------
g---------------------------------------
d---------------------------------------
a---3--5---3--5---3--5----5--3----------
E---------------------------------------

Riff two
[ Tab from: http://www.guitartabs.cc/tabs/m/marilyn_manson/king_kill_33_tab.html ]
e---------------------------------------
b---------------------------------------
g---------------------------------------
d---------------------------------------
a---3--5---3--5---3--5------------------
E------------------------4---1--1--1----

Play riff one, then play riff two. it goes this way the whole song

Noisy solo

e----15--------------------
b---------15---16----------
g-------------------14-----
d--------------------------
a--------------------------
E--------------------------

check it out GNR tabs maybe two weeks from today
i'll try to post "think 'bout you" with chords and riffs, bridge solos,etc.  
:: Ultimate Guitar Archive :: 
http://www.ultimate-guitar.com 

Comments