Marilyn Manson - Kinderfeld Chords & Tabs

 

Kinderfeld Chords & Tabs

Marilyn Manson Chords & Tabs

Version: 2 Type: Bass Tab 0 ratings
1 star 2 stars 3 stars 4 stars 5 stars
comments

Kinderfeld Bass Tab

   
Marilyn Manson
Kinderfeld 

tabbed by Declan

This is my first try at tabbing, so forgive me
if I screw it up. This has gotta be the best song on Antichrist Superstar.

Twiggy uses about a 2mm pick and tunes it down 5 frets 

C A D G

KEY:
/ = slide up to note
\ = slide down to note

Riff 1 

G|----------------------|
D|----------------------|
A|-------6-6-6-6---4-6--|
E|--4-4----------4------|

Riff 2 

G|----------------------|
D|----------------------|
A|-------6-6-6-6-4-6-7--|
E|--4-4-----------------|

Riff 3 (Then I got my wings...)

Play this 3 times

G|-------------------------|
D|-------------------------|
A|-------------------------|
E|--4-4-4-4\0-0/4-4-4-4\0--|

Then this the fourth time.

G|-------------|
D|-------------|
A|-------------|
E|--1-1-1-1\0--|

I think that's right. Check out the guitar tab.

Riff 3 (Because today is black...)
[ Tab from: http://www.guitartabs.cc/tabs/m/marilyn_manson/kinderfeld_btab_ver_2.html ]
G|---------------------|
D|---------------------|
A|------1-1-0-0---4-6--|
E|--4-4---------4------|

G|-------------------------|
D|-------------------------|
A|------1-1-0-0-------4-6--|
E|--4-4---------6-4-4------|

Riff 4 (I have become the strongest weed)

G|----------------------------------------------|
D|----------------------------------------------|
A|------1-1-0-0---4-6--------1-1-0-------6------|
E|--4-4---------4--------4-4-------6-4-6--------|

That's it.

Riff 1 x 3
Riff 2 x 1
Riff 1 x 3
Riff 2 x 1
Riff 1 x 3
Riff 2 x 1
Riff 1 x 3
Riff 2 x 1
Riff 3 x 1
Riff 1 x 5
Riff 2 x 1
Riff 1 x 4
Riff 2 x 1
Riff 3 x 1
Riff 4 x 7
Riff 5 x 1
Riff 1 x 3
Riff 2 x 1
Riff 1 x 3
Riff 2 x 1
Riff 1 x 3
Riff 2 x 1
Riff 1 x 3
Riff 2 x 1

Then Antichrist Superstar stars... 

I think that's it. I might be wrong in riff 3.
Check the guitar riff if it sounds wrong.
Has anyone tabbed the Pan flute for this song.
Email me your corrections at Declan@nex.net.au

Comments