Marilyn Manson - Kiddie Grinder Chords & Tabs

 

Kiddie Grinder Chords & Tabs

Marilyn Manson Chords & Tabs

Version: 1 Type: Bass Tab 0 ratings
1 star 2 stars 3 stars 4 stars 5 stars
comments

Kiddie Grinder Bass Tab

Kiddie Grinder (remix) - Marilyn Manson

By: Jon Craven (i_apathy@hotmail.com)
For questions, comments, feedback, an outline of the timing, write the above
address.

Note:
  -Played with a pick.

(4/4)(95 bpm)
Standard tuning

Chorus: (x2)(0:40)
|----------------|----------------|
|----------------|----------------|
|5-5-5-5---------|5-5-5-5---------|
|--------4-5-4-5-|--------5-4-5-4-|
[ Tab from: http://www.guitartabs.cc/tabs/m/marilyn_manson/kiddie_grinder_btab.html ]
Rest till 2:12
Chorus (x4)
Rest till 3:55
Chorus (x4)
Rest till end
===========          Kiddie Grinder
          By Marilyn Manson
          From Smells Like Children
          Tabbed By Mike Gagnon
          
          Chorus
          
          G----------------------------
          D----------------------------
          A-5-5-----------5-5----------
          E------4/5-4/5-------3/4-3/4-
Comments