Marilyn Manson - Irresponsible Hate Anthem Chords & Tabs

 

Irresponsible Hate Anthem Chords & Tabs

Marilyn Manson Chords & Tabs

Version: 2 Type: Tab 0 ratings
1 star 2 stars 3 stars 4 stars 5 stars
comments

Irresponsible Hate Anthem Tab

   
Artist: Marilyn Manson
Album: Antichrist Superstar
Song: Irresponsible Hate Anthem

Standard Tuning: low to high(E A D G B E)

Intro:
|------------------------------------|-------------------------|
|------------------------------------|-------------------------|
|------------------------------------|-------------------------|
|-4-4-4-7-7-7-9-9-10-10-10-9-9-9-7-7-|-4-4-4-7-7-7-9-9-2-2-2-2-|
|-4-4-4-7-7-7-9-9-10-10-10-9-9-9-7-7-|-4-4-4-7-7-7-9-9-2-2-2-2-|
|-2-2-2-5-5-5-7-7--8--8--8-7-7-7-5-5-|-2-2-2-5-5-5-7-7-0-0-0-0-|

Verse(Bass):
|---------------------------------|-------------------------|
|---------------------------------|-------------------------|
|---------------------------------|-------------------------|
|---------------------------------|-------------------------|
|---------------------------------|-------------------------|
|-2-2-2-5-5-5-7-7-8-8-8-7-7-7-5-5-|-2-2-2-5-5-5-7-7-0-0-0-0-|
|(Gtr)
|---------------|
|---------------|
|---------------|
|-7---7---7---7-|Repeat
|-6---6---6---6-| This!
|---------------|
[ Tab from: http://www.guitartabs.cc/tabs/m/marilyn_manson/irresponsible_hate_anthem_tab_ver_2.html ]
Chorus 1(Fuck It...):
|------------------------------------|-------------------------|
|------------------------------------|-------------------------|
|------------------------------------|-------------------------|
|-4-4-4-7-7-7-9-9-10-10-10-9-9-9-7-7-|-4-4-4-7-7-7-9-9-2-2-2-2-|
|-4-4-4-7-7-7-9-9-10-10-10-9-9-9-7-7-|-4-4-4-7-7-7-9-9-2-2-2-2-|
|-2-2-2-5-5-5-7-7--8--8--8-7-7-7-5-5-|-2-2-2-5-5-5-7-7-0-0-0-0-|

Chorus 2(Everybody's someone else's...):
|---------------------------------------------------------|
|---------------------------------------------------------|
|---------------------------------------------------------|
|-4--10-9-7-9-7--4--10-9-7-9-7--4--10-9-7-9-7--2--2--2--3-|
|-4--10-9-7-9-7--4--10-9-7-9-7--4--10-9-7-9-7--2--2--2--3-|
|-2---8-7-5-7-5--2---8-7-5-7-5--2---8-7-5-7-5--0--0--0--1-|

Bridge:
|-------------------------------------|
|-------------------------------11----|
|-11-12-11-12-11-12-11-12-11-12----12-|
|-------------------------------------|
|-------------------------------------|
|-------------------------------------|

Outro:
|------------------------------------|-------------------------|------------
|------------------------------------|-------------------------|------------
|------------------------------------|-------------------------|------------
|-4-4-4-7-7-7-9-9-10-10-10-9-9-9-7-7-|-4-4-4-7-7-7-9-9-2-2-2-2-|-2--2--2--2~
|-4-4-4-7-7-7-9-9-10-10-10-9-9-9-7-7-|-4-4-4-7-7-7-9-9-2-2-2-2-|-2--2--2--2~
|-2-2-2-5-5-5-7-7--8--8--8-7-7-7-5-5-|-2-2-2-5-5-5-7-7-0-0-0-0-|-0--0--0--0~

That's it. Hope it's correct. Please Rate.
Comments