Marilyn Manson - Insect Pins Chords & Tabs

 

Insect Pins Chords & Tabs

Marilyn Manson Chords & Tabs

Version: 1 Type: Bass Tab 0 ratings
1 star 2 stars 3 stars 4 stars 5 stars
comments

Insect Pins Bass Tab

Insect Pins - Marilyn Manson
Jon Craven (nojnevarc@hotmail.com; www.homestead.com/larsramirez)

Intro:
G:------------|-----------|-12*******-|-********-|-********-|-14*******-|-12*******-|-********-|
D:-R--R--R--R-|-----------|-10*******-|-********-|-********-|-13*******-|-12*******-|-********-|
A:------------|-12*******-|-10*******-|-********-|-********-|-12*******-|-10*******-|-********-|
E:------------|-----------|-----------|----------|----------|-----------|-----------|----------|

G:-********-|-********-|-********-|-********-|
D:-********-|-********-|-********-|-********-|
A:-********-|-********-|-********-|-********-|
E:----------|----------|----------|----------|

Riff 1: (x6)
G:-----------14------|----------|-----------|------------------|-----------14------|----------|
D:---------------13*-|-********-|-12*******-|-11**-10-10-10----|---------------13*-|-********-|
A:-12--12-12---------|----------|-----------|---------------11-|-12--12-12---------|----------|
E:-------------------|----------|-----------|------------------|-------------------|----------|

G:-----------|---------------9-9-|
D:-12*******-|-11**-10-10-10-----|
A:-----------|-------------------|
E:-----------|-------------------|
[ Tab from: http://www.guitartabs.cc/tabs/m/marilyn_manson/insect_pins_btab.html ]
Riff 2: (x2)
G:-----------14-12-----|----------|-----------|------------------|-----------14-14-----|----------|
D:-----------------13*-|-********-|-12*******-|-11**-10-10-10----|-----------------13*-|-********-|
A:-12--12-12-----------|----------|-----------|---------------11-|-12--12-12-----------|----------|
E:---------------------|----------|-----------|------------------|---------------------|----------|

G:-----------|---------------9-9-|
D:-12*******-|-11**-10-10-10-----|
A:-----------|-------------------|
E:-----------|-------------------|

Riff 3: (x4)
G:-----------------|-----------------|-----------------|-----------------|
D:-----------------|-----------------|-----------------|-----------------|
A:-0-0-0-0-3-3-3-3-|-0-0-0-0-3-3-3-3-|-0-0-0-0-3-3-3-3-|-6-6-6-6-6-6-6-6-|
E:-----------------|-----------------|-----------------|-----------------|

Riff 2 (x5)
Riff 3 (x4)
Riff 2 (x4)
Riff 2 (x10)

End:
G:----------|----------|----------|----------|----------|----------|----------|----------|----------|
D:-7*******-|-********-|-********-|-********-|-********-|-********-|-********-|-********-|-********-|
A:----------|----------|----------|----------|----------|----------|----------|----------|----------|
E:----------|----------|----------|----------|----------|----------|----------|----------|----------|

G:----------|
D:-********-|
A:----------|
E:----------|

Break till end
Comments