Marilyn Manson - Great Big White World Chords & Tabs

 

Great Big White World Chords & Tabs

Marilyn Manson Chords & Tabs

Version: 2 Type: Tab 0 ratings
1 star 2 stars 3 stars 4 stars 5 stars
comments

Great Big White World Tab

   
this is my first tab so leave me alone if you think its demented, k? =P

tuning: can be standard (E-A-D-G-B-e) but i find it easier on Drop D 
tuning (D-A-D-G-B-e), it sounds just as good, if not better. if you use the standard
tuning, make sure you play riff 5 properly

b - bend
h - hammer
/ - slide

Other Notes: if you are using an electric guitar, 
this tune is best done using the Bridge Pickup switch and on overdrive
distortion


riff 1

e------------------------|
B------------------------|
G----8-7b------8-7-------|
D-10------8-10-----10-8--|
A------------------------|
D------------------------|

Light Riff (riff2)

I dont know what instrument they use for this but it works on guitar

with the hammering, you hammer the above fret repeatedly

e-10h---7h---12h---10h---7h---3h---7h---3h----------------------------|
B---------------------------------------------------------------------|
G---------------------------------------------------------------------|
D---------------------------------------------------------------------|
A---------------------------------------------------------------------|
D---------------------------------------------------------------------|


Riff 3

"Im not attached..."

e-----------------------------------------------------------------|
B---4-3---4-3---4---4-3---4-3---4---4-3---4-3---4---4-3---4-3---4-|
G-5-----5-----5---4-----4-----4---3-----3-----3---2-----2-----2---| 
D-----------------------------------------------------------------|
A-----------------------------------------------------------------|
D-----------------------------------------------------------------|


riff 4
[ Tab from: http://www.guitartabs.cc/tabs/m/marilyn_manson/great_big_white_world_tab_ver_2.html ]
"because its a great big white world"
e-------------------------------------------------8--|
B----------------------------------------------------|
G----8-10-10/11-11/10-8--------8-10-10/11-11/10-8----|
D-10--------------------10--10-----------------------|
A----------------------------------------------------|
D----------------------------------------------------|

riff 5

"All my stitches itch..."
e-------------------------------------------------------------------------------------|
B-------------------------------------------------------------------------------------|
G-------------------------------------------------------------------------------------|
D-3-3-3-3-3-3-3-3-3-3-3-3/6-6-6-6-6-6-6-6-6-6-6-6/10-10-10-10-10-10-10-10-10-10-10-10/|
A-3-3-3-3-3-3-3-3-3-3-3-3/6-6-6-6-6-6-6-6-6-6-6-6/10-10-10-10-10-10-10-10-10-10-10-10/|
D-3-3-3-3-3-3-3-3-3-3-3-3/6-6-6-6-6-6-6-6-6-6-6-6/10-10-10-10-10-10-10-10-10-10-10-10/|

e-------------------------------------------------------------------------|
B-------------------------------------------------------------------------|
G-------------------------------------------------------------------------|
D-8-8-8-8-8-8-8-8-8-8-8-8/6-6-6-6-6-6-6-6-6-6-6-6/5-5-5-5-5-5-5-5-5-5-5-5-|
A-8-8-8-8-8-8-8-8-8-8-8-8/6-6-6-6-6-6-6-6-6-6-6-6/5-5-5-5-5-5-5-5-5-5-5-5-|
D-8-8-8-8-8-8-8-8-8-8-8-8/6-6-6-6-6-6-6-6-6-6-6-6/5-5-5-5-5-5-5-5-5-5-5-5-|


those are pretty much all you need to know, there is another riff near the end
but i dont know how it goes yet, so just go with this.


this is the order of riffs:

1 - Riff 1 x4

2 - Riff 2 x1

3 - Riff 3 x2

4 - Riff 4 x4

5 - Riff 5 x1

6 - Riff 1 x4

7 - Riff 4 x4

8 - Riff 5 x2

9 - Riff 3 x2

10- Riff 5 x4

NOTE: riff 5 changes slightly  on #8 and #10 so just use your ears and you'll
figure it out, its very easy.



By Andrew Watson (Scourge)

please, if you have any comments, or have the final riff, email me at friggenearthlings@yahoo.com.au
Comments