Marilyn Manson - God Eat God Chords & Tabs

 

God Eat God Chords & Tabs

Marilyn Manson Chords & Tabs

Version: 4 Type: Tab

God Eat God Tab

0 : 13
-----------------------------------------------I
---6---6---5---5---------2--3--2----2--3--2----I
-----7---7---7---7----4----------2-------------I
-----------------------------------------------I Play 6 times
-----------------------------------------------I
-----------------------------------------------I




Guitar 1
0 : 55 Clean Palm mute 
----------------------------------------------------I
----------------------------------------------------I
---4--4--4--4--6--6--6--6--7--7--7--7--7--7--7--7---I
---4--4--4--4--6--6--6--6--7--7--7--7--7--7--7--7---I Play 4 times
---2--2--2--2--4--4--4--4--5--5--5--5--5--5--5--5---I
----------------------------------------------------I




Guitar 2                                                               
1 : 09 Distortion
--------------------------------------------I
--------------------------------------------I
--4--6--4--7---------------7--4--7--6-------I
--------------------------------------------I
--------------------------------------------I
--------------------------------------------I




Guitar 2
1 : 17 Distortion
--------------------------------------------I
--------------------------------------------I
--4--6-6--7----------------7--4--7--6-------I
--------------------------------------------I
--------------------------------------------I
--------------------------------------------I




Guitar 2
1 : 24                                 1 : 36
--------------------I                  ---------1 / 9-------I
------6---6--5------I                  ---------------------I
--------7----7------I                  ---------------------I
--------------------I          Then    ---------------------I
--------------------I                  ---------------------I
--------------------I                  ---------------------I

      

[ Tab from: http://www.guitartabs.cc/tabs/m/marilyn_manson/god_eat_god_tab_ver_4.html ]
Guitar 1
1 : 24
-----------------------------------------------I
---6---6---5---5---------2--3--2----2--3--2----I
-----7---7---7---7----4----------2-------------I
-----------------------------------------------I Play 4 times
-----------------------------------------------I
-----------------------------------------------I




Guitar 1         Play 4 times                             
1 : 52 Distortion Palm mute                                  
-------------------------------------------------I
-------------------------------------------------I
4--4--4--4--6--6--6--6--7--7--7--7--7--7--7--7---I
4--4--4--4--6--6--6--6--7--7--7--7--7--7--7--7---I
2--2--2--2--4--4--4--4--5--5--5--5--5--5--5--5---I
-------------------------------------------------I




Then Guitar 1 : 
Distortion without palm mute
2 : 20
-----------I
-----------I
---7-------I
---7-------I
---5-------I
-----------I




Guitar 2                                                               
1 : 52 Distortion
--------------------------------------------I
--------------------------------------------I
--4--6--4--7---------------7--4--7--6-------I
--------------------------------------------I Play 3 times 
--------------------------------------------I
--------------------------------------------I




Guitar 2
2 : 13 Distortion
--------------------------------------------I
--------------------------------------------I
--4--6-6--7----------------7--4--7--6-------I
--------------------------------------------I
--------------------------------------------I
--------------------------------------------I




Guitar 2
2 : 20                                 2 : 33
--------------------I                  ---------1 / 9-------I
------6---6--5------I                  ---------------------I
--------7----7------I                  ---------------------I
--------------------I        Then      ---------------------I
--------------------I                  ---------------------I
--------------------I                  ---------------------I