Marilyn Manson - God Eat God Chords & Tabs

 

God Eat God Chords & Tabs

Marilyn Manson Chords & Tabs

Version: 2 Type: Tab 0 ratings
1 star 2 stars 3 stars 4 stars 5 stars
comments

God Eat God Tab

   
This is one of Manson's easiest songs, so I don't see how so many people got the tabs wrong.

L.R. = Let Ring
P.M. = Palm Mute

Intro:

e-1--1--0--0-------------------|
B---3--3--3--3---2-3-2---2-3-2-|
G--------------4-------2-------| 6x
D------------------------------|
A------------------------------|
E------------------------------|
  L.R.'''''''''''''''''''''''''
[ Tab from: http://www.guitartabs.cc/tabs/m/marilyn_manson/god_eat_god_tab_ver_2.html ]
Chorus:
e---------------------------------|
B---------------------------------|
G---------------------------------| 4x
D-4-4-4-4-6-6-6-6-7-7-7-7-7-7-7-7-|
A-2-2-2-2-4-4-4-4-5-5-5-5-5-5-5-5-|
E---------------------------------|
  P.M.''''''''''''''''''''''''''''
 Before the Bullets, Before the flies...

Interlude:
e------------------------------|
B---2---3-----3---3-2----------|
G-4---4---------4--------------| 2x
D------------------------------|
A------------------------------|
E------------------------------|
  L.R.'''''''''''''''''''''''''
 The only smiling are you dolls that I made...
Comments