Marilyn Manson - Fundamentally Loathsome Chords & Tabs

 

Fundamentally Loathsome Chords & Tabs

Marilyn Manson Chords & Tabs

Version: 2 Type: Tab 0 ratings
1 star 2 stars 3 stars 4 stars 5 stars
comments

Fundamentally Loathsome Tab

Song:Fundamentally Loathsome (solo) , Mechanical Animals

Tabbed By:Mariojohnl5


h:hammer on
p:pull off
/:slide down
\:Slide up
~:vibrator
( ):Hold it
r:releas
[ Tab from: http://www.guitartabs.cc/tabs/m/marilyn_manson/fundamentally_loathsome_tab_ver_2.html ]
                                                                   Full
Solo start's     2:12-13 min                                       /\
                                                     full         /  \
1|---------------------------------------------------/-----------12-(12)--
2|--------------------------------------------------/-----------12--------
3|------------------------------------------------12--9~~~~9~9~-----------
4|----5h7p5-------------------------7h9p7-9-11-12-------------------------
5|----------7-5------0-4/7~~~~--7----------------------------------------
6|--------------7-5-0-----------------------------------------------------
        Full            Full
Continue/               /                                     full
1|----14--12~~---12-14--12-10-12~-12/14-14-14-12-10-12~~-10-/---------
2|----------------------------------------------------------12--------
3|--------------------------------------------------------------------
4|--------------------------------------------------------------------
5|--------------------------------------------------------------------
6|--------------------------------------------------------------------
                  Full
Comtinue          /\
1|---------------/--\----------------------------------------------12/14-14
2|----8p7h8p7h8-10-(10)-10p8-----------------9----11-----------------------
3|--------------------------9~~~~~~~9~~~~~~--11---13--9-11/12~~-9~~--------
4|---------------------------------------------\---\-----------------------
5|----------------------------------------------\---\----------------------
6|---------------------------------------------Full--Full------------------

Continue
1|----14-16-14-12-10~~12-10--------------------------------------------
2|------------------------12~~10h11p10h11p10---------------------------
3|------------------------------------------12-9-8/9--3/4~~~~~-0-1/2-4-
4|---------------------------------------------------------------------
5|---------------------------------------------------------------------
6|---------------------------------------------------------------------

Continue
1|---------------------------------------------------------------------|
2|---------------------------------------------------------------------|
3|----7-9-11/12-12-11-12/14-12-12~~~~~~~~~~~~~~------------------------|
4|---------------------------------------------------------------------|
5|---------------------------------------------------------------------|
6|---------------------------------------------------------------------|

That's all.

If you have any questions to me, write to my e-mail.
Mariojohn5@netscape.net
Comments