Marilyn Manson - Dunebuggy Chords & Tabs

 

Dunebuggy Chords & Tabs

Marilyn Manson Chords & Tabs

Version: 1 Type: Tab 0 ratings
1 star 2 stars 3 stars 4 stars 5 stars
comments

Dunebuggy Tab

          Song: Dunebuggy
          Artist: Marilyn Manson
          Written by: Daisy?,Gein?,Gacy?
          Lyrics by: Marilyn Manson
          Album: Marilyn Manson and the spooky kids "Lunchbox"
          Tabed by: Per "Pogo" Stenberg
          fanta98@hotmail.com
          
          This is not correct!
          I can't hear what the guitar is playing (I hate daisy and zum) (John 5 rocks!)
          This will probely help you a bit! :)
          
          Intro  (this is not correct, but it help you figure it out)
          
          ----------------------------
          ----------------------------
          -----------10-7-10-7-10-7-10
          -----3/7\3------------------
          -5-3------------------------
          ----------------------------
          
          
          Main riff
          
          -------------
          -------------
          -------------
          ---5-7-8-7-5-
          -7-5-7-8-7-5-
          -7-----------
          
          
          Verses (* palm muted)
          
          -----------------
          -----------------
          -----------------
          -----------2-5-6-
          -----------2-5-6-
          000000000000-3-4-
          ***********
          
          Chours
          
          -------------
          -------------
          -------------
          ---5-7-8-7-5-
          -7-5-7-8-7-5-
          -7-----------
          
          
          Bridge
          
          -------
          -------
          -4-6---
          -4-6-6-
          -2-4-6-
          -----4-
          
          Break 
          I don't here what the guitar is playing!!
          
          
          
          Outro (I think it is correct)
          
          
          -------0-------0
          -------1-------3
          ----------------
          ---2-------4----
          -3---3---5---5--
          ----------------
[ Tab from: http://www.guitartabs.cc/tabs/m/marilyn_manson/dunebuggy_tab.html ]
Comments