Marilyn Manson - Dope Hat Chords & Tabs

 

Dope Hat Chords & Tabs

Marilyn Manson Chords & Tabs

Version: 1 Type: Bass Tab 1 rating
1 star 2 stars 3 stars 4 stars 5 stars
comments

Dope Hat Bass Tab

Song: Dope Hat
By: Marilyn Manson

Intro (play 2X)
G-------------------------------------------------
D-------------------------------------------------
A-------------------------------------------------
E--2-2-2-2-2-2/-5-5-5-5\--2-2-2-2-2/-8-8-8/-7-7-7\

Pause out while 'The Great Hoodo' is playing then:

Verse(play until the mellow part)
G-------------------------------------------------
D-------------------------------------------------
A-------------------------------------------------
E-2-2--9-9--8-8-7-8-7--2-2-9-9-8-8-7-8-7---------
(You can slide if you want, gives it more edge)
Mellow Part
G-------------------------------------------------
D-------------------------------------------------
A-------------------------------------------------
E--2-------/12\2------2-------/12\2---------------
~Let the 2 ring~
Then Break into Pre-Chorus
(Fail to See the Tragic-Turn it into Magic)
[ Tab from: http://www.guitartabs.cc/tabs/m/marilyn_manson/dope_hat_btab.html ]
Pre-Chorus(play 2X)
G-------------------------------------------------
D-------------------------------------------------
A-------------------------------------------------
E--2-2-2-2-2-2/-5-5-5-5\--2-2-2-2-2/-8-8-8/-7-7-7\
  
Chorus
G-------------------------------------------------
D-------------------------------------------------
A---7777-----7777------9999--------9999-----------
E--------8888-----8888-----10101010-----10101010--
~Play as 7-7-7-7 not 7777 And those are 10(tens) not
1-0-1-0~

Now the fun Part
After Chorus
G-------------------------------------------------
D-------------------------------------------------
A--999/888/777/666/555/444/333/222-2--------------
E-------------------------------------------------
Let the last 2 ring out while drums play


Ending(Oh, NO-Put the god damn hat on the bed...)
G-------------------------------------------------
D-------------------------------------------------
A--999/888/777/666/555/444/333/222-2--------------
E--------------------------------------/9------2--
(Again let A2 ring then End)

So putting it together looks like:
Intro(2x)
Verse
Mellow
Intro/Pre-Chorus(2x)
Chorus 
After Chorus
Verse
Intro/Pre-Chorus(2x)
Chorus (2x)
Ending

There's my version, I'm happy with it. Also when you
Another alternative way of playing the verse is:
A-----4-4--3-3-2-3-2-
E-2-2----------------

Comments