Marilyn Manson - Doll-dagga Buzz-buzz Ziggety-zag Chords & Tabs

 

Doll-dagga Buzz-buzz Ziggety-zag Chords & Tabs

Marilyn Manson Chords & Tabs

Version: 1 Type: Tab 0 ratings
1 star 2 stars 3 stars 4 stars 5 stars
comments

Doll-dagga Buzz-buzz Ziggety-zag Tab

   
Doll-Dagga Buzz-Buzz Jiggety-Zag - Marilyn Manson
Tabbed by Tinboy

Tuning - Drop D

E B G D A D

Intro

|------------------------------------------------------------------------|
|------------------------------------------------------------------------|
|------------------------------------------------------------------------|
|---2--2--2-2-5-2--2-5-2-5-2--5-5-5-5-5-2--------------------------------| x2
|---2--2--2-2-5-2--2-5-2-5-2--5-5-5-5-5-2--------------------------------|
|---2--2--2-2-5-2--2-5-2-5-2--5-5-5-5-5-2--------------------------------|

Verse 1 - (no guitar)

Bridge

|------------------------------------------------------------------------|
|------------------------------------------------------------------------|
|------------------------------------------------------------------------|
|---2--2--2-2-5-2--2-5-2-5-2--5-5-5-5-5-2--------------------------------|
|---2--2--2-2-5-2--2-5-2-5-2--5-5-5-5-5-2--------------------------------|
|---2--2--2-2-5-2--2-5-2-5-2--5-5-5-5-5-2--------------------------------|

Verse 2

|------------------------------------------------------------------------|
|------------------------------------------------------------------------|
|------------------------------------------------------------------------|
|---2----2-5-2----5-5-5-5-5-5-2----2-5-2----5-5-5-5-5-5------------------|
|---2----2-5-2----5-5-5-5-5-5-2----2-5-2----5-5-5-5-5-5------------------|
|---2----2-5-2----5-5-5-5-5-5-2----2-5-2----5-5-5-5-5-5------------------|

Pre-Chorus - "Doll-Dagga Buzz0Buzz Jiggety-Zag"

|------------------------------------------------------------------------|
|------------------------------------------------------------------------|
|------------------------------------------------------------------------|
|---x-x--x-x--x-x--x-x---------------------------------------------------| x4
|---x-x--x-x--x-x--x-x---------------------------------------------------|
|---x-x--x-x--x-x--x-x---------------------------------------------------|

|------------------------------------------------------------------------|
|------------------------------------------------------------------------|
|------------------------------------------------------------------------|
|------------------------------------------------------------------------| x2
|---7v--/--8v--/--9v--/--10v---------------------------------------------|
|------------------------------------------------------------------------|

Chorus - "The toys are us and we don't even know"

|------------------------------------------------------------------------|
|------------------------------------------------------------------------|
|------------------------------------------------------------------------|
|---9----8----5--7--2----------------------------------------------------| x2
|---9----8----5--7--2----------------------------------------------------|
|---9----8----5--7--2----------------------------------------------------|

Bridge - "Go, go, go! Doppelgangers!"

|------------------------------------------------------------------------|
|------------------------------------------------------------------------|
|------------------------------------------------------------------------|
|---2--2--2-2-5-2--2-5-2-5-2--5-5-5-5-5-2--------------------------------| x2
|---2--2--2-2-5-2--2-5-2-5-2--5-5-5-5-5-2--------------------------------|
|---2--2--2-2-5-2--2-5-2-5-2--5-5-5-5-5-2--------------------------------|

Verse

|------------------------------------------------------------------------|
|------------------------------------------------------------------------|
|------------------------------------------------------------------------|
|---2----2-5-2----5-5-5-5-5-5-2----2-5-2----5-5-5-5-5-5------------------| x2
|---2----2-5-2----5-5-5-5-5-5-2----2-5-2----5-5-5-5-5-5------------------|
|---2----2-5-2----5-5-5-5-5-5-2----2-5-2----5-5-5-5-5-5------------------|

Pre-Chorus

|------------------------------------------------------------------------|
|------------------------------------------------------------------------|
|------------------------------------------------------------------------|
|---x-x--x-x--x-x--x-x---------------------------------------------------| x4
|---x-x--x-x--x-x--x-x---------------------------------------------------|
|---x-x--x-x--x-x--x-x---------------------------------------------------|
[ Tab from: http://www.guitartabs.cc/tabs/m/marilyn_manson/doll_dagga_buzz_buzz_ziggety_zag_tab.html ]
|------------------------------------------------------------------------|
|------------------------------------------------------------------------|
|------------------------------------------------------------------------|
|------------------------------------------------------------------------| x2
|---7v--/--8v--/--9v--/--10v---------------------------------------------|
|------------------------------------------------------------------------|

Chorus

|------------------------------------------------------------------------|
|------------------------------------------------------------------------|
|------------------------------------------------------------------------|
|---9----8----5--7--2----------------------------------------------------| x2
|---9----8----5--7--2----------------------------------------------------|
|---9----8----5--7--2----------------------------------------------------|

Bridge

|------------------------------------------------------------------------|
|------------------------------------------------------------------------|
|------------------------------------------------------------------------|
|---2--2--2-2-5-2--2-5-2-5-2--5-5-5-5-5-2--------------------------------| x2
|---2--2--2-2-5-2--2-5-2-5-2--5-5-5-5-5-2--------------------------------|
|---2--2--2-2-5-2--2-5-2-5-2--5-5-5-5-5-2--------------------------------|

Middle Section

Gtr. 2
|------------------------------------------------------------------------|
|------------------------------------------------------------------------|
|------------------------------------------------------------------------|
|---9-11-12--x-x-x--9h11p9--9h11p9--9h11p9--9h11p9-----------------------|
|------------------------------------------------------------------------|
|------------------------------------------------------------------------|\
                                                                           | x2
|------------------------------------------------------------------------|/
|------------------------------------------------------------------------|
|------------------------------------------------------------------------|
|---9-11-12--x-x-x--9-11-9--9-11-9--9h11p9h11p9h11p9---------------------|
|------------------------------------------------------------------------|
|------------------------------------------------------------------------|

Gtr. 1
|------------------------------------------------------------------------|
|----------11b-----------------------------------------------------------|
|---9h12---9b----9h12--9\------------------------------------------------|
|------------------------------------------------------------------------| x2
|------------------------------------------------------------------------|
|------------------------------------------------------------------------|

|------------------------------------------------------------------------|
|------------------------------------------------------------------------|
|------------------------------------------------------------------------|
|------------------------------------------------------------------------| x2
|---7v--/--8v--/--9v--/--10v---------------------------------------------|
|------------------------------------------------------------------------|

Chorus

|------------------------------------------------------------------------|
|------------------------------------------------------------------------|
|------------------------------------------------------------------------|
|---9----8----5--7--2----------------------------------------------------| x2
|---9----8----5--7--2----------------------------------------------------|
|---9----8----5--7--2----------------------------------------------------|

Outro

|------------------------------------------------------------------------|
|------------------------------------------------------------------------|
|------------------------------------------------------------------------|
|-----8---8---8----7---7----5---5---5---5--------------------------------| x6
|---7---7---7----7---7----7---7---7---7---7------------------------------|
|------------------------------------------------------------------------|

|------------------------------------------------------------------------|
|------------------------------------------------------------------------|
|------------------------------------------------------------------------|
|-------2----------------------------------------------------------------|
|-------2----------------------------------------------------------------|
|---2v--2----------------------------------------------------------------|

that's all

email - tinboy50@hotmail.com
Comments