Marilyn Manson - Disposable Teens Chords & Tabs

 

Disposable Teens Chords & Tabs

Marilyn Manson Chords & Tabs

Version: 5 Type: Tab 0 ratings
1 star 2 stars 3 stars 4 stars 5 stars
comments

Disposable Teens Tab

   
#-----------------------------------------------------#
# This song uses up and down picking the hole song.   #
# This is also the right way to play it for I've seen #
# a live video of this song and John 5 (guitar player)#
# plays it this way!                                  #
#-----------------------------------------------------#

This song is in drop D
[ Tab from: http://www.guitartabs.cc/tabs/m/marilyn_manson/disposable_teens_tab_ver_5.html ]
Riff 1                     
E-------------------------------
B-------------------------------
G-------------------------------
D-5-5-3-8-5-5-5-5-3-5--x-x-x----
A-5-5-3-8-5-5-5-5-3-5--x-x-x---- x4
D-5-5-3-8-5-5-5-5-3-5--x-x-x----
                        
Riff 2                                   bend up 1/4 tone              
E--------------------------------------------------------
B--------------------------------------------------------
G--------------------------------------------------------
D-0-x-x-x-x-0-0-x-x-x-x-x-x-x-0-x-x-x-x-0-0-x-x-0-3b-r-3-
A-0-x-x-x-x-0-0-x-x-x-x-x-x-x-0-x-x-x-x-0-0-x-x-0-3b-r-3- x3
D-0-x-x-x-x-0-0-x-x-x-x-x-x-x-0-x-x-x-x-0-0-x-x-0-3b-r-3-


Riff 1 x2
Riff 2 x2
Riff 1 x4
Riff 2 x3
Riff 1 x6

Riff 3
E-----------------------
B-----------------------
G-----------------------
D-3-3-3-3-3-3-3-3-3-3/4-
A-3-3-3-3-3-3-3-3-3-3/4- hear the song for the count
D-3-3-3-3-3-3-3-3-3-3/4-


Drum and keyboard solo


E-----
B-----
G-----
D-3/4-
A-3/4-
D-3/4-

Back to Riff 1 x8
Comments