Marilyn Manson - Disposable Teens Chords & Tabs

 

Disposable Teens Chords & Tabs

Marilyn Manson Chords & Tabs

Version: 4 Type: Tab 0 ratings
1 star 2 stars 3 stars 4 stars 5 stars
comments

Disposable Teens Tab

   
Song:Disposable Teens, Holy Wood CD.
Tabbed By:Mariojohnl5.
Mariojohnl5@netscape.net
Turning:D.

p:pull off
h:hammer on
/\:Slide

Intro

1|------------|
2|----15------|
3|----14------|
4|------\-----|
5|-------\----|
6|------Full--|


1|----------------------------------------|
2|----------------------------------------|
3|----9-9--7/12--9-9-9-9--7--9--x-x-x-----|
4|----9-9--7/12--9-9-9-9--7--9--x-x-x-----|  Repeat 4 times
5|----7-7--5/10--7-7-7-7--5--7--x-x-x-----|
6|----------------------------------------|

Verse A

1|---------------------------------------------------------------|
2|---------------------------------------------------------------|
3|---------------------------------------------------------------|
4|----0-0--x-x--0-0-0-0--x-x-x-x--0-0--x-x--0-0-0-0--0h3-0h3-0---|Repeat 
5|----0-0--x-x--0-0-0-0--x-x-x-x--0-0--x-x--0-0-0-0--0h3-0h3-0---|  3 times
6|----0-0--x-x--0-0-0-0--x-x-x-x--0-0--x-x--0-0-0-0--0h3-0h3-0---|

Chorus

1|---------------------------------------|
2|---------------------------------------|
3|----9-9--7/12--9-9-9-9--7--9--x-x------|
4|----9-9--7/12--9-9-9-9--7--9--x-x------|  Repeat 2 times
5|----7-7--5/10--7-7-7-7--5--7--x-x------|
6|---------------------------------------|

Verse B

1|---------------------------------------------------------------|
2|---------------------------------------------------------------|
3|---------------------------------------------------------------|
4|----0-0--x-x--0-0-0-0--x-x-x-x--0-0--x-x--0-0-0-0--0h3-0h3-0---|Repeat 
5|----0-0--x-x--0-0-0-0--x-x-x-x--0-0--x-x--0-0-0-0--0h3-0h3-0---|  2 times
6|----0-0--x-x--0-0-0-0--x-x-x-x--0-0--x-x--0-0-0-0--0h3-0h3-0---|

Chorus
[ Tab from: http://www.guitartabs.cc/tabs/m/marilyn_manson/disposable_teens_tab_ver_4.html ]
1|---------------------------------------|
2|---------------------------------------|
3|----9-9--7/12--9-9-9-9--7--9--x-x------|
4|----9-9--7/12--9-9-9-9--7--9--x-x------|  Repeat 4 times
5|----7-7--5/10--7-7-7-7--5--7--x-x------|
6|---------------------------------------|

Riff

1|---------------------------------------------------------------|
2|---------------------------------------------------------------|
3|---------------------------------------------------------------|
4|----0-0--x-x--0-0-0-0--x-x-x-x--0-0--x-x--0-0-0-0--0h3p0-3p0---|Repeat 
5|----0-0--x-x--0-0-0-0--x-x-x-x--0-0--x-x--0-0-0-0--0h3p0-3p0---|  2 times
6|----0-0--x-x--0-0-0-0--x-x-x-x--0-0--x-x--0-0-0-0--0h3p0-3p0---|

Chorus

1|---------------------------------------|
2|---------------------------------------|
3|----9-9--7/12--9-9-9-9--7--9--x-x------|
4|----9-9--7/12--9-9-9-9--7--9--x-x------|  Repeat 6 times
5|----7-7--5/10--7-7-7-7--5--7--x-x------|
6|---------------------------------------|

Brigde

1|---------------------------------------|
2|---------------------------------------|
3|----7-----------------7/9--------------|
4|----7--31times then---7/9--------------|
5|----5-----------------5/7--------------|
6|---------------------------------------|

Riff 2

This Riff 2 is like this,from live, john5 did like this but I Don't know
he did in this cd.

1|-----------------------------------------|
2|----15-----------------------------------|
3|----14----4times Then-------7-9----------|
4|------\---------------------7-9----------|
5|-------\--------------------5-7----------|
6|------Full-------------------------------|

Chorus

1|---------------------------------------|
2|---------------------------------------|
3|----9-9--7/12--9-9-9-9--7--9--x-x------|
4|----9-9--7/12--9-9-9-9--7--9--x-x------|  Repeat 12 times
5|----7-7--5/10--7-7-7-7--5--7--x-x------|
6|---------------------------------------|

That's all,have fun.
If you think something was not right please comments to:
Mariojohnl5@netscape.net
Comments