Marilyn Manson - Disposable Teens Chords & Tabs

 

Disposable Teens Chords & Tabs

Marilyn Manson Chords & Tabs

Version: 3 Type: Tab 0 ratings
1 star 2 stars 3 stars 4 stars 5 stars
comments

Disposable Teens Tab

-------------------------------------------------------------------------------
			     Disposable Teens - Marilyn Manson
Tabbed by: Coby

Tuning: Normal

Intro
[ Tab from: http://www.guitartabs.cc/tabs/m/marilyn_manson/disposable_teens_tab_ver_3.html ]
e|---------------------------------------------------------------------------|
B|---------------------------------------------------------------------------|
G|---------------------------------------------------------------------------|
D|--7-7--5--10--7-7-7-7--5--7-----7-7-7--------------------------------------|
A|--7-7--5--10--7-7-7-7--5--7--pm-7-7-7---X2---------------------------------|
E|--5-5--3--8---5-5-5-5--3--5-----5-5-5--------------------------------------|
  
Verse                              
e|---------------------------------------------------------------------------|
B|---------------------------------------------------------------------------|
G|---------------------------------------------------------------------------|
D|--7-7-x--7--7-7---7--7-7---7--10-12----------------------------------------|
A|--7-7-x--7--7-7---7--7-7---7--10-12----------------------------------------|
E|--5-5-x--5--5-5---5--5-5---5--8--10----------------------------------------|

Chorus
e|---------------------------------------------------------------------------|
B|---------------------------------------------------------------------------|
G|---------------------------------------------------------------------------|
D|--7-7--5--10--7-7-7-7--5--7-----7-7-7--------------------------------------|
A|--7-7--5--10--7-7-7-7--5--7--pm-7-7-7---X2---------------------------------|
E|--5-5--3--8---5-5-5-5--3--5-----5-5-5--------------------------------------|

Verse

Chorus

Interlude
e|---------------------------------------------------------------------------|
B|---------------------------------------------------------------------------|
G|---------------------------------------------------------------------------|
D|--7-7--5--10--7-7-7-7--5--7-----7-7-7--------------------------------------|
A|--7-7--5--10--7-7-7-7--5--7--pm-7-7-7---X2---------------------------------|
E|--5-5--3--8---5-5-5-5--3--5-----5-5-5--------------------------------------|

Chorus

If you liked this check out more cool tabs by Coby like Underdose by InMe and
Citizen Erased by Muse.

Bye!!!!!!!!!!!
Comments