Marilyn Manson - Disposable Teens Chords & Tabs

 

Disposable Teens Chords & Tabs

Marilyn Manson Chords & Tabs

Version: 2 Type: Tab 0 ratings
1 star 2 stars 3 stars 4 stars 5 stars
comments

Disposable Teens Tab

Song:Disposable Teens
Artist:Marilyn Manson
Album:Holywood

Main Riff
eb------------------------------------------------------
Bb------------------------------------------------------
Gb------------------------------------------------------
Db-5--5--3-----8----5--5--5------3--5---x-x-x-----------
Ab-7--7--5----10----7--7--7------5--7---x-x-x-----------
Eb-x--x--x-----x----x--x--x------x--x---x-x-x-----------


Riff 2
eb--------------------------------------------------
Bb--------------------------------------------------
Gb--------------------------------------------------
Db-2-2-x-x-x-x-2-2-x-x2-2-x-x-x-x-x-x---------------
Ab-2-2-x-x-x-x-2-2-x-x2-2-x-x-x-x-x-x---------------
Eb-0-0-x-x-x-x-0-0-x-x0-0-x-x-x-x-x-x---------------
[ Tab from: http://www.guitartabs.cc/tabs/m/marilyn_manson/disposable_teens_tab_ver_2.html ]
Riff 2 (cont)
eb--------------------------------------------------
Bb--------------------------------------------------
Gb--------------------------------------------------
Db-2-2-x-x-x-x-2-2-x-2-2-x-x-0-3-0-3----------------
Ab-2-2-x-x-x-x-2-2-x-2-2-x-x-0-3-0-3----------------
Eb-0-0-x-x-x-x-0-0-x-0-0-x-x-0-3-0-3----------------


Riff 3 (Guitar 2 during riff 1)
eb--------------------------------------------------
Bb--------------------------------------------------
Gb--------------------------------------------------
Db-0-----6------7^----------------------------------
Ab--------------------------------------------------
Eb--------------------------------------------------

Riff 4   Fill
eb----------------|-------------------------
Bb----------------|-------------------------
Gb-3-------4-5----|-------------------------
Db-4-X(23)-5-6----|--7---8------------------
Ab-5-------6-7----|--5---6------------------
Eb----------------|--x---x------------------



Riff 1
Riff 2
Riff 1
Riff 2
Riff 1 (w/ Riff 3)
Riff 4
Break
Fill
Riff 1 (w/ Riff 3)
Comments