Marilyn Manson - Disposable Teens Chords & Tabs

 

Disposable Teens Chords & Tabs

Marilyn Manson Chords & Tabs

Version: 2 Type: Bass Tab 0 ratings
1 star 2 stars 3 stars 4 stars 5 stars
comments

Disposable Teens Bass Tab

   
Song: Disposable Teens
Artist: Marilyn Manson
Album: Holy Wood (In the Shadow of the Valley of Death)
Released: 11-30-00
Transcribed by: "Joe Black" From The Bronx!

Tuning for 4 string: D-A-D-G


These are the various parts to the song.

G:---------------------------------
D:---------------------------------
A:--5--5--5--3\8--(8^)--(8)--5--5--
D:---------------------------------

  ----------------------------|
  ----------------------------|
  --5--5--3--5--(5)-----------|
  -------------------0--0--0--|



G:-------------------------|
D:-------------------------|
A:-------------------------|
D:--(0)--0--0--0--0--0--0--|
[ Tab from: http://www.guitartabs.cc/tabs/m/marilyn_manson/disposable_teens_btab_ver_2.html ]
G:-------------------------|
D:-------------------------|
A:-------------------------|
D:--0----X--0--3^--(3)--3--|

G:---------------------------------|
D:---------------------------------|
A:--5--5--5--3--8--(8)^--8--5--5---|
D:---------------------------------|

G:----------------------------------|
D:----------------------------------|
A:--(5)--5--3--5--------------------|
D:----------------0--0--0--0--0--0--|


G:--------------------------|
D:--------------------------|
A:--3--3--3--3--3--3--3--3--|
D:--------------------------|

=========================================
I may have updated this tab. The latest
version will be uploaded to my site.
http://www.geocities.com/newyorkzone
=========================================

  ____    _____
 (    `--'  .-'`                T_T_T_T_
 |{| O  O  ||||||||||||||||||||[o o o o/
 (__,--.____',                  `--`--'

Comments