Marilyn Manson - Diary Of A Dope Fiend Chords & Tabs

 

Diary Of A Dope Fiend Chords & Tabs

Marilyn Manson Chords & Tabs

Version: 1 Type: Tab 0 ratings
1 star 2 stars 3 stars 4 stars 5 stars
comments

Diary Of A Dope Fiend Tab

          Song: Diary Of A Dope Fiend
          Album: Smells Like Children
          Artist: Marilyn Manson
          Tabbed: Matt Patterson Hitman95@hotmail.com

          Intro
          |--14-------------14----------|
          |---------13----------13------|
          |------14-----------------14--|
          |-----------------------------|
          |-----------------------------|
          |-----------------------------|

          |-----------------|
          |-----------------|
          |--11--9--14--11--|
          |--11--9--14--11--|
          |--9---7--12--9---|
          |-----------------|

          End of 1st Verse
          |--11b12--------r11b12r11b12r11----------14--------14-|
          |-------------------------------12b13-13-----13-13----|
          |-----------------------------------------------------|
          |-----------------------------------------------------|
          |-----------------------------------------------------|
          |-----------------------------------------------------|
[ Tab from: http://www.guitartabs.cc/tabs/m/marilyn_manson/diary_of_a_dope_fiend_tab.html ]
          |-----------------------------------------|
          |--r12--r12r12r12---10--------------------|
          |-----------------------11-9-----11-9-----|
          |----------------------------10-------10--|
          |-----------------------------------------|
          |-----------------------------------------|

          2nd Verse
          |--------------------|
          |--------------------|
          |--11--11-11--9--11--|
          |--------------------|
          |--------------------|
          |--------------------|

          |--------------------|
          |--11--11-11--9------|
          |----------------11--|
          |--------------------|
          |--------------------|
          |--------------------|

          |--------------------------|
          |----------------10b11r10--|
          |--11--11-11--9------------|
          |--------------------------|
          |--------------------------|
          |--------------------------|

          Hard Part "Fail to see the.."
          |-------------------------|
          |-------------------------|
          |-------------------------|
          |--4-4--7-7--4-4--10--9---|
          |--4-4--7-7--4-4--10--9---|
          |--2-2--5-5--2-2--8---7---|
Comments