Marilyn Manson - Deformograph Chords & Tabs

 

Deformograph Chords & Tabs

Marilyn Manson Chords & Tabs

Version: 1 Type: Bass Tab

Deformograph Bass Tab

Riff 1: (x8)
G:---------------|----------------|
D:---------------|----------------|
A:---------------|----------------|
D:-0--2--2-0--2--|-0--2--2-0--2--5|
[ Tab from: http://www.guitartabs.cc/tabs/m/marilyn_manson/deformograph_btab.html ]
Riff 2: (x8)
G:-----------------|-----------------|
D:-----------------|-----------------|
A:-7-7-7-7-7-7-7-7-|-7-7-7-7-5-5-5-5-|
D:-----------------|-----------------|

Riff 1 (x6)
Riff 2 (x8)

Riff 3: (x8)
G:----------------|---------------|
D:----------------|---------------|
A:-7-7-7-7-7-R--R-|-7-7-7-7-7-5**-|
D:----------------|---------------|

Riff 2 (x8)

Riff 4: (x2)
G:-------------|------|
D:-------------|------|
A:-------------|------|
D:-11----12--13|----\2|