Marilyn Manson - Cruci-fiction In Space Chords & Tabs

 

Cruci-fiction In Space Chords & Tabs

Marilyn Manson Chords & Tabs

Version: 2 Type: Bass Tab 0 ratings
1 star 2 stars 3 stars 4 stars 5 stars
comments

Cruci-fiction In Space Bass Tab

Cruci-Fiction in Space - Marilyn Manson

By: Jon Craven (i_apathy@hotmail.com)
For questions, comments, feedback, an outline of the timing for the riffs,
write the address above.

Note:
  -Played with a pick.

(4/4)(100 bpm)
Tuned down one and a half steps (low to high: Db Gb B E)

* - note held for an eighth beat
/ - slide up
\ - slide down
+ - note held for a sixteenth beat

Verse: (x32)
|----------------|
|----------------|
|----------------|
|0---0---0---0---|

Chorus: (x4)(1:16)
|----------------|----------------|
|----------------|----------------|
|7-7-7-5-7-5-----|--------7---5---|
|------------3-*-|*-*-*-*---------|
[ Tab from: http://www.guitartabs.cc/tabs/m/marilyn_manson/cruci_fiction_in_space_btab_ver_2.html ]
Bridge: (1:36)
|-----------------|------------------|------------------|------------------|
|-----------------|------------------|------------------|------------------|
|7-*-*-7/13-*-*-*-|*-*-*-*-12---11---||7-*-*-7/13-*-*-*-|*-*-*-*-12---11\--|
|-----------------|------------------|------------------|-----------------0|

Verse (x8)
Chorus (x4)

Chorus 2: (x4)(2:24)
|-----------------|----------------|
|------------11-*-|*-*-*-*-*-*-*-*-|
|7-7-7-7-7-7------|----------------|
|-----------------|----------------|

Interlude: (x8)(2:43)
|----------------|----------------|
|8-*-*-7-*-*-5-*-|*---------------|
|----------------|--7-*-+-5-7-5-7-|
|----------------|-------0--------|

Verse (x24)
Rest till end
Comments