Marilyn Manson - Count To Six And Die Chords & Tabs

 

Count To Six And Die Chords & Tabs

Marilyn Manson Chords & Tabs

Version: 1 Type: Tab 0 ratings
1 star 2 stars 3 stars 4 stars 5 stars
comments

Count To Six And Die Tab

   
          Count to 6 and die
          by Marilyn Manson
          tabed by Per "Pogo" Stenberg
          fanta98@hotmail.com
          
          I play Guitar, Keyboard and bass, so do you need any help just scream!
          
          (Guitar)
          
          Intro
          
          ---------
          ---------
          ---------
          ---------
          -7-7-7-7-
          -0-0-0-0-
          
          ------------------
          ------------------
          ------------------
          ------------------
          --7-7-7-7-7-7-7-7-
          -7-7-6-6-5-5-0-0--
          
          
          
          
          
          -12-15-14----12-15-14----12-15-14----------------------
          ----------12----------11----------10-------------------
          ---------------------------------------11--11-12-11-9--
          -------------------------------------------------------
          -------------------------------------------------------
          -------------------------------------------------------
          
          
          outro
          
          --12---14-15-17-19-15-17-14--
          ----12-----------------------
          -----------------------------
          -----------------------------
          -----------------------------
          -----------------------------
          
          POGO ROCKS!!! MW GACY ROCKS!!!!!
          ===================
[ Tab from: http://www.guitartabs.cc/tabs/m/marilyn_manson/count_to_six_and_die_tab.html ]
          Tabbed by : julian015@hotmail.com
          Artist    : Marilyn Manson
          Album     : Holy Wood (In The Shadow Of The Valley Of Death)
          Song      : Track #19 - Count To Six And Die (The vacuum of infinite 
                                                                 space encompassing)
          
          Piano transcribed for guitar
          
          Tuning : Standard (EADGBE)
          
          
          If you don't think this sounds right.... then the odds are that your
          guitar is highly out of tune. Tune it before complaining ;)
          
          
          Intro & first verse ("Shes got her eyes open wide...")
          
          G|-----------------|
          D|-2-2-2-2-2-2-2-2-|
          A|-----------------|
          E|-0-0-0-0-0-0-0-0-|
          
          Verse 2 ("I've got an angel in the lobby...")
          
          B|---------------------------------------------------|
          G|-9-12-11-------9-12-11------9-12-11----------------|
          D|---------9-------------8---------------------------|
          A|------------------------------------12--7-7-10-9-7-|
          
          Ending : (repeat this)
          
          E|------------------------|
          B|---------10-12----10----|
          G|-9-11-12-------12----11-|
          D|------------------------|
          
          End on an E note. (G|-9-|)
          
          This isn't exact... it was done in about 5 minutes after 
          listening to the piano parts twice.
Comments