Marilyn Manson - Coma White Chords & Tabs

 

Coma White Chords & Tabs

Marilyn Manson Chords & Tabs

Version: 9 Type: Tab 0 ratings
1 star 2 stars 3 stars 4 stars 5 stars
comments

Coma White Tab

Marilyn Manson - Coma White

Intro and the Chorus - Repeat three times

e ------------------------------------------------|
B-----0--------0--------0--------0----1-----1-----|
G--2-----2--2-----2--2-----2--2-----2----2----2---|
D-------------------------------------------------|
A-------------------------------------------------|
E-------------------------------------------------|

And at the end of the third repeat play...

e ------------------------------------------------------------|
B----3-----3-------3------3-----1-------1-------0------0------|
G-------2------2------2------2------2-------2-------2-----2---|
D-------------------------------------------------------------|
A-------------------------------------------------------------|
E-------------------------------------------------------------|

Repeat all of that 6 times. After the first time, the bass and drums come in, with the 
playing...

G---------------------------------|
D---------------------------------|
A---0------3----------------------|
E------------------3------1----3--|

Using whole notes, and which repeats 5 times. The G at the end isn't supposed to be a 
note. Just kind of throw it in there to bring the repeat back around prettily.

During the chorus, the bass plays the same thing, but hitting a note at every quarter.

Guitar goes over it, with A5, C5, G5, and F5 playing along with the bass. Pretty much self-explanatory.
[ Tab from: http://www.guitartabs.cc/tabs/m/marilyn_manson/coma_white_tab_ver_9.html ]
Then comes the little bridge part, which the guitar and bass play together with a solo 
top, which sounds oddly like a guitar, which confuses me because it also sounds like the 
is playing the bridge also. Maybe there's more I need to learn about this song.

e -------------------------------------------------------------------------|
B--------------------------------------------------------------------------|
G---2---2---2---2---5/7---7--------------------5/7---7---2----2---2---2----|
D---2---2---2---2---5/7---7---3----3---3---3---5/7---7---2----2---2---2----|
A---0---0---0---0---3/5---5---3----3---3---3---3/5---5---0----0---0---0----|
E-----------------------------1----1---1---1-------------------------------|

e ---------------------------------------------|
B----------------------------------------------|
G----------------------------------------------|
D--7/5---5---3----3---3---3---3---3---3-3-3-3--|
A--7/5---5---3----3---3---3---1---1---3-3-3-3--|
E--5/3---3---1----1---1---1---1---1---1-1-1-1--|
                                      ^ ^ ^ ^
                                    Play eighths

Listen to the song for the rest of the timings.

The bass mimics the guitar in this part too.

The little guitar thing toward the end plays easily like this:

e -----------------|
B------------------|
Gó4/5/4---2---0----|
D------------------|
A------------------|
E------------------|

A pretty easy song, but odds are I messed it up in some place, so if you have any 
or comments, e-mail them to me, as I won't be checking this very often.

Flogginchamber27@aol.com
Comments