Marilyn Manson - Coma White Chords & Tabs

 

Coma White Chords & Tabs

Marilyn Manson Chords & Tabs

Version: 6 Type: Tab 0 ratings
1 star 2 stars 3 stars 4 stars 5 stars
comments

Coma White Tab

Song: Coma White
Artis: Marilyn Manson
Album:Mechanical Amimals
Date:Thursday,9-10-2003.23:43pm.
Tabed By:Mario "Johnl5" Lyberth
Andersen@greennet.gl
Turning:Standard

This is my first tab ever.Coma White from the Mechanical Animals cd.Is fun to play and
is fun to sing along with manson.

p:Pull off
h:hammer on
*:play 8 times
/ \:Slide up to/down from infinty


Intro/Verse

1|------0---0---0---0-------------------------|
2|-----0---0---0---0---0-1-1------------------|
3|----2---2---2---2---2---------3times-then---|
4|--------------------------------------------|
5|--------------------------------------------|
6|--------------------------------------------|


1|--------------------------------------------|
2|-----3--3--3--3--1--1--0--0-----------------|
3|----2--2--2--2--2--2--2--2------------------|
4|--------------------------------------------|
5|--------------------------------------------|
6|--------------------------------------------|


Chorus

1|--------------------------------------------|
2|--------------------------------------------|
3|--------------------------------------------|
4|----5*---8*---2*---2/3--1*------------------|
5|----5*---8*---2*---2/3--1*------------------|
6|----5*---8*---2*---2/3--1*------------------|

Pre-Chorus
[ Tab from: http://www.guitartabs.cc/tabs/m/marilyn_manson/coma_white_tab_ver_6.html ]
1|-----------------------------------------------------------------------------|
2|-----------------------------------------------------------------------------|
3|-----------------------------------------------------------------------------|
4|----5-5-5-5--8/10-#-#-4--4-4-4--8/10-#-#-5--5-5-5--10\8-#-#-1--1-1-1-1-1-----|
5|----5-5-5-5--8/10-#-#-4--4-4-4--8/10-#-#-5--5-5-5--10\8-#-#-1--1-1-1-1-1-----|
6|----5-5-5-5--8/10-#-#-4--4-4-4--8/10-#-#-5--5-5-5--10\8-#-#-1--1-1-1-1-1-----|


Brigde

1|-------------------------------------------|
2|-------------------------------------------|
3|-------------------------------------------|
4|----5*---8*---10*---13*--------------------|
5|----5*---8*---10*---13*--------------------|
6|----5*---8*---10*---13*--------------------|

riff

Follow the guitar,you'll hear what you supposed to do.

1|----------------------------------------------------|
2|----------------------------------------------------|
3|----------------------------------------------------|
4|---9^(9)-7--9^(9)-7--9^(9)-7-9^(9)-9^(9)-7^-12^-----|
5|----------------------------------------------------|
6|----------------------------------------------------|

Outro

1|---------------------|
2|---------------------|
3|---------------------|
4|----9^(9)-7\5--------|
5|---------------------|
6|---------------------|


Order:
Intro/verse - 6 times
Chorus - 2 times
Pre-Chorus - 1 time
Intro/verse - 6times
Chorus - 2 times
Pre-Chorus - 3 times
riff  -  2 times
outro - 11 times




That's all : )
Comments to:andersen@greennet.gl.
Comments