Marilyn Manson - Coma White Chords & Tabs

 

Coma White Chords & Tabs

Marilyn Manson Chords & Tabs

Version: 5 Type: Tab 0 ratings
1 star 2 stars 3 stars 4 stars 5 stars
comments

Coma White Tab

alright.. the other tab blew monkey balls... so here you go.. this is the chronic shit.


Intro.
e--------------------------------------------------------------------
B---0---0---0---0--1-1-----0---0---0---0--1-1-----0---0---0---0-1-1-
G-2---2---2---2----------2---2---2---2----------2---2---2---2-------
D--------------------------------------------------------------------
A--------------------------------------------------------------------
E--------------------------------------------------------------------

e-----------------------------------------
B-------0---0------0-----0----------------
G-///7----7----\\5---\\4------------------     x6
D-----------------------------------------
A-----------------------------------------
E-----------------------------------------

Chorus
e--------------------------------------------------------
B--------------------------------------------------------
G--------------------------------------------------------    x2
D-77777777/1010101010101010\55555555\33333333------------
A-77777777/1010101010101010\55555555\33333333------------
E-55555555/8-8-8-8-8-8-8-8-\33333333\11111111------------

e----------------------------------------------------------
B----------------------------------------------------------
G----------------------------------------------------------    x1
D-//7777/10/12-8~~888/10/12-7~~777-12\10\\\3~~~~-----------
A-//7777/10/12-8~~888/10/12-7~~777-12\10\\\3~~~~-----------
E-//5555/8-/10-6~~666/8-/10-5~~555-10\-8\\\1~~~~-----------

Main riff.
e--------------------------------------------------------------------
B---0---0---0---0--1-1-----0---0---0---0--1-1-----0---0---0---0-1-1-
G-2---2---2---2----------2---2---2---2----------2---2---2---2-------
D--------------------------------------------------------------------
A--------------------------------------------------------------------
E--------------------------------------------------------------------
[ Tab from: http://www.guitartabs.cc/tabs/m/marilyn_manson/coma_white_tab_ver_5.html ]
e-----------------------------------------
B-------0---0------0-----0----------------
G-///7----7----\\5---\\4------------------     x4
D-----------------------------------------
A-----------------------------------------
E-----------------------------------------

Chorus TWICE
e--------------------------------------------------------
B--------------------------------------------------------
G--------------------------------------------------------    x4
D-77777777/1010101010101010\55555555\33333333------------
A-77777777/1010101010101010\55555555\33333333------------
E-55555555/8-8-8-8-8-8-8-8-\33333333\11111111------------

e----------------------------------------------------------
B----------------------------------------------------------
G----------------------------------------------------------    x2
D-//7777/10/12-8~~888/10/12-7~~777-12\10\\\3~~~~-----------
A-//7777/10/12-8~~888/10/12-7~~777-12\10\\\3~~~~-----------
E-//5555/8-/10-6~~666/8-/10-5~~555-10\-8\\\1~~~~-----------

SOLO:

e----------------------------------------------------------
B-10-10-10-10----10----------10-------10-------------------
G-------------12----12-11-11----11-10----11p10h11----------   X2
D----------------------------------------------------------
A----------------------------------------------------------
E----------------------------------------------------------


e-----12-10-12--------12-10-12-------12-10-12-------12-10-12---
B-12~~------------12~~-----------12~~-----------12~~-----------
G--------------------------------------------------------------   X1
D--------------------------------------------------------------
A--------------------------------------------------------------
E--------------------------------------------------------------

End Chorus
e--------------------------------------------------------
B--------------------------------------------------------
G--------------------------------------------------------    x5
D-77777777/1010101010101010\55555555\33333333------------
A-77777777/1010101010101010\55555555\33333333------------
E-55555555/8-8-8-8-8-8-8-8-\33333333\11111111------------

Outro 
e--------------------------------------------
B--0h2-0-------------------------------------
G----------2-0-------------------------------   x however long you 
D--------------------------------------------     want to play it
A--------------------------------------------
E--------------------------------------------
Comments