Marilyn Manson - Coma White Chords & Tabs

 

Coma White Chords & Tabs

Marilyn Manson Chords & Tabs

Version: 4 Type: Tab 0 ratings
1 star 2 stars 3 stars 4 stars 5 stars
comments

Coma White Tab

   
От: for www.ultimate-guitar.com 
Кому: 
Тема: New Tabs
Дата: 6 июля 2000 г. 21:19

Marilyn Manson - Coma White.
 Tabbed by Steve McFadden - spmcfadden@yahoo.com.
  
Coma White - Marilyn Manson
(Note: this might be completely screwed up text... due to different font sizes, just put it in notepad and put each string line on a new line if anything screws up.)

Tabbed by:  Steve McFadden - spmcfadden@yahoo.com
Tab typed up:  July 2000
My website:  www.guitarchive.co.uk
* Please e-mail me any comments or corrections :) *

------------------------------------------
Lyrics:

Something is cold and blank behind her smile
She's standing on an overpass
In her miracle mile
(Coma):
"You were from a perfect world
A world that threw me away today
Today to run away"
A pill to make you numb
A pill to make you dumb
A pill to make you anybody else
But all the drugs in this world
Won't save her from herself

Her mouth was an empty cut
And she was waiting to fall
Just bleeding like a polaroid that
Lost all her dolls
(Coma):
"You were from a perfect world
A world that threw me away today
Today to run away"

A pill to make you numb
A pill to make you dumb
A pill to make you anybody else
But all the drugs in this world
Won't save her from herself
------------------------------------------

[ Tab from: http://www.guitartabs.cc/tabs/m/marilyn_manson/coma_white_tab_ver_4.html ]
Here are the licks to Coma White, there is a rough rhythm here, but listen to the recording to get the definite rhythm and also to get the song structure.



Intro
G ----4-4---4----4---5---5--------4-4---4----4---5---5--------4-4---4----4---5---5---------4-4---4----4---5---5---7---7---7---7---5---5---4---4
D --7------7----7----7---7-------7------7----7----7---7-------7------7----7----7---7-------7------7----7----7---7------7---7---7---7---7---7---7---7



Chorus
D ---7-7-7-7-7-7-7-7-10-10-10-10-10-10-10-10-5-5-5-5-5-5-5-5-3-3-3-3-3-3-3-3
A ---7-7-7-7-7-7-7-7-10-10-10-10-10-10-10-10-5-5-5-5-5-5-5-5-3-3-3-3-3-3-3-3
E ---5-5-5-5-5-5-5-5- 8-8-8-8-8-8-8-8-8-8-8-8-8-3-3-3-3-3-3-3-3-1-1-1-1-1-1-1-1



Solo bit
A -----------------5-7-------------5--7------------5-3-0--------------------
E ---5---5-5-8--------4--4-4-8--------5--5-5-----------1--1-1-1-1-1-

(You can play this with three string bar chords to get a fuller tone, which is done in the record if you listen to it. On the E string (low E ;), just add an E-minor shape chord and on the A string, add an A chord (now wasn't that easy..?) I thought if I wrote the whole lot out with bar chords it would take too long, and I wanted to tab Great Big White World as well :)
Anyway...



End bit (great term huh?)
(b - bend up)
(l - let down)

D---9-b-10-l -9--7-----
A-----------------------10 
:: Ultimate Guitar Archive :: 
http://www.ultimate-guitar.com 

Comments