Marilyn Manson - Coma White Chords & Tabs

 

Coma White Chords & Tabs

Marilyn Manson Chords & Tabs

Version: 3 Type: Tab 1 rating
1 star 2 stars 3 stars 4 stars 5 stars
comments

Coma White Tab

Band: Marilyn Manson
Song: Coma White
Album Mechanical Animals

Ok this is my first tab so rate nicely.. any comments or corrections 
e-mail kittierocks@hotmail.com



Intro/Verse..

e|------------------------------- 
B|--0-----0-----0-----0---1--1--- 
G|----2-----2-----2-----2---2--2- 
D|------------------------------- 
A|0-----0-----0-----0------------ 
E|-------------------------------


After the 3rd time it's...

e|----------------------------------
B|/3---3---3---3---1---1---0---0---- 
G|---2---2---2---2---2---2---2---2-- 
D|---------------------------------- 
A|---------------------------------- 
E|----------------------------------


Chorus..
[ Tab from: http://www.guitartabs.cc/tabs/m/marilyn_manson/coma_white_tab_ver_3.html ]
e|--------------------------------------------------------------------------- 
B|--------------------------------------------------------------------------- 
G|--------------------------------------------------------------------------- 
D|-7-7-7-7-7-7-7-7\10-10-10-10-10-10-10-10\5-5-5-5-5-5-5-5-5\3-3-3-3-3-3-3-3- 
A|-7-7-7-7-7-7-7-7\10-10-10-10-10-10-10-10\5-5-5-5-5-5-5-5-5\3-3-3-3-3-3-3-3- 
E|-5-5-5-5-5-5-5-5\8 -8 -8 -8 -8 -8 -8 -8 \3-3-3-3-3-3-3-3-3\1-1-1-1-1-1-1-1-


Interlude..

e|------------------------------------------------------------------ 
B|------------------------------------------------------------------ 
G|------------------------------------------------------------------ 
D|-7-7-7-7-10-12-X-6-6-6-6-10-12-X-7-7-7-7-12-10-X-3-3-3-3-3-3-3-3-- 
A|-7-7-7-7-10-12-X-6-6-6-6-10-12-X-7-7-7-7-12-10-X-3-3-3-3-3-3-3-3-- 
E|-5-5-5-5-8 -10-X-4-4-4-4-8 -10-X-5-5-5-5-10-8 -X-1-1-1-1-1-1-1-1--
Comments