Marilyn Manson - Coma White Chords & Tabs

 

Coma White Chords & Tabs

Marilyn Manson Chords & Tabs

Version: 2 Type: Tab 2 ratings
1 star 2 stars 3 stars 4 stars 5 stars
comments

Coma White Tab

coma white marilyn manson
tab by: comablack_   comablack_@hotmail.com

INTRO AND VERSE 1 *somethings cold and blank behind........
E-----------------------------------------------
B-----------0-------0-------0-------0----1---1--
G-------2--------2-------2-------2----2----2----
D---2---------2-------2-------2-----------------
A-----------------------------------------------
E-----------------------------------------------

E-----------------------------------------------
B-----------0-------0-------0-------0----1---1--
G-------2--------2-------2-------2----2----2----
D---2---------2-------2-------2-----------------
A-----------------------------------------------
E-----------------------------------------------

E-----------------------------------------------
B-----------0-------0-------0-------0----1---1--
G-------2--------2-------2-------2----2----2----
D---2---------2-------2-------2-----------------
A-----------------------------------------------
E-----------------------------------------------

E-----------------------------------------------
B----3---3---3---3---1---1---0---0--------------
G--2---2---2---2---2---2---2---2----------------
D-----------------------------------------------
A-----------------------------------------------
E-----------------------------------------------

CHORUS *A PILL TO MAKE YOU.........
E------------------------------------------------
B------------------------------------------------
G-0--0--0--0--0--0--0--0--5--5--5--5--5--5--5--5-
D-0--0--0--0--0--0--0--0--5--5--5--5--5--5--5--5-
A-0--0--0--0--0--0--0--0--3--3--3--3--3--3--3--3-
E------------------------------------------------

E-----------------------------------------------
B-----------------------------------------------
G-----------------------------------------------
D-5--5--5--5--5--5--5--5/3--3--3--3--3--3--3--3-
A-5--5--5--5--5--5--5--5/3--3--3--3--3--3--3--1-
E-3--3--3--3--3--3--3--3/1--1--1--1--1--1--1--1-

BRIDGE
E-----------------------------------------------
B-----------------------------------------------
G-----------------------------------------------
D--7--7--7--7--10--12---6--6--6--6--8--10-------
A--7--7--7--7--10--12---6--6--6--6--8--10-------
E--5--5--5--5---8--10---4--4--4--4--6---8-------

E-------------------------------------------------
B-------------------------------------------------
G-------------------------------------------------
D--7--7--7--7--12--10----3----3--3--3--3--3--3--3-
A--7--7--7--7--12--10----3----3--3--3--3--3--3--3-
E--5--5--5--5--10---8----1----1--1--1--1--1--1--1-

VERSE 2 *her mouth was an empty cut........
E-----------------------------------------------
B-----------0-------0-------0-------0----1---1--
G-------2--------2-------2-------2----2----2----
D---2---------2-------2-------2-----------------
A-----------------------------------------------
E-----------------------------------------------

E-----------------------------------------------
B-----------0-------0-------0-------0----1---1--
G-------2--------2-------2-------2----2----2----
D---2---------2-------2-------2-----------------
A-----------------------------------------------
E-----------------------------------------------
[ Tab from: http://www.guitartabs.cc/tabs/m/marilyn_manson/coma_white_tab_ver_2.html ]
E-----------------------------------------------
B-----------0-------0-------0-------0----1---1--
G-------2--------2-------2-------2----2----2----
D---2---------2-------2-------2-----------------
A-----------------------------------------------
E-----------------------------------------------

E-----------------------------------------------
B----3---3---3---3---1---1---0---0--------------
G--2---2---2---2---2---2---2---2----------------
D-----------------------------------------------
A-----------------------------------------------
E-----------------------------------------------

CHORUS *A PILL TO MAKE YOU.........
E------------------------------------------------
B------------------------------------------------
G-0--0--0--0--0--0--0--0--5--5--5--5--5--5--5--5-
D-0--0--0--0--0--0--0--0--5--5--5--5--5--5--5--5-
A-0--0--0--0--0--0--0--0--3--3--3--3--3--3--3--3-
E------------------------------------------------

E-----------------------------------------------
B-----------------------------------------------
G-----------------------------------------------
D-5--5--5--5--5--5--5--5/3--3--3--3--3--3--3--3-
A-5--5--5--5--5--5--5--5/3--3--3--3--3--3--3--1-
E-3--3--3--3--3--3--3--3/1--1--1--1--1--1--1--1-

E------------------------------------------------
B------------------------------------------------
G-0--0--0--0--0--0--0--0--5--5--5--5--5--5--5--5-
D-0--0--0--0--0--0--0--0--5--5--5--5--5--5--5--5-
A-0--0--0--0--0--0--0--0--3--3--3--3--3--3--3--3-
E------------------------------------------------

E-----------------------------------------------
B-----------------------------------------------
G-----------------------------------------------
D-5--5--5--5--5--5--5--5/3--3--3--3--3--3--3--3-
A-5--5--5--5--5--5--5--5/3--3--3--3--3--3--3--1-
E-3--3--3--3--3--3--3--3/1--1--1--1--1--1--1--1-

BRIDGE
E-----------------------------------------------
B-----------------------------------------------
G-----------------------------------------------
D--7--7--7--7--10--12---6--6--6--6--8--10-------
A--7--7--7--7--10--12---6--6--6--6--8--10-------
E--5--5--5--5---8--10---4--4--4--4--6---8-------

E-------------------------------------------------
B-------------------------------------------------
G-------------------------------------------------
D--7--7--7--7--12--10----3----3--3--3--3--3--3--3-
A--7--7--7--7--12--10----3----3--3--3--3--3--3--3-
E--5--5--5--5--10---8----1----1--1--1--1--1--1--1-

CHORUS *A PILL TO MAKE YOU.........
E------------------------------------------------
B------------------------------------------------
G-0--0--0--0--0--0--0--0--5--5--5--5--5--5--5--5-
D-0--0--0--0--0--0--0--0--5--5--5--5--5--5--5--5-
A-0--0--0--0--0--0--0--0--3--3--3--3--3--3--3--3-
E------------------------------------------------

E-----------------------------------------------
B-----------------------------------------------
G-----------------------------------------------
D-5--5--5--5--5--5--5--5/3--3--3--3--3--3--3--3-
A-5--5--5--5--5--5--5--5/3--3--3--3--3--3--3--1-
E-3--3--3--3--3--3--3--3/1--1--1--1--1--1--1--1-

E------------------------------------------------
B------------------------------------------------
G-0--0--0--0--0--0--0--0--5--5--5--5--5--5--5--5-
D-0--0--0--0--0--0--0--0--5--5--5--5--5--5--5--5-
A-0--0--0--0--0--0--0--0--3--3--3--3--3--3--3--3-
E------------------------------------------------

E-----------------------------------------------
B-----------------------------------------------
G-----------------------------------------------
D-5--5--5--5--5--5--5--5/3--3--3--3--3--3--3--3-
A-5--5--5--5--5--5--5--5/3--3--3--3--3--3--3--1-
E-3--3--3--3--3--3--3--3/1--1--1--1--1--1--1--1-
Comments