Marilyn Manson - Coma White Chords & Tabs

 

Coma White Chords & Tabs

Marilyn Manson Chords & Tabs

Version: 11 Type: Tab 0 ratings
1 star 2 stars 3 stars 4 stars 5 stars
comments

Coma White Tab

   
I'm pretty positive this is the way it should be played.  Cool sounding song, sounds
good on the acoustic too :D


1. Intro / Verse

Finger picking.  I use my thumb for the D string, pointer for G and middle for B.


e------------------------------------|
B-----0-----0-----0---------0---0----|
G---4-----4-----4-----4---5---5------|x 3 then....
D-7-----7-----7-----7---7------------|
A------------------------------------|
E------------------------------------|

e--------------------------------|
B---0---0---0---0---0---0---0---0|
G/7---7---7---7---5---5---4---4--|
D--------------------------------|
A--------------------------------|
E--------------------------------|

2. Chorus
[ Tab from: http://www.guitartabs.cc/tabs/m/marilyn_manson/coma_white_tab_ver_11.html ]
       A                C                 G             F 
e----------------------------------------------------------------|
B----------------------------------------------------------------|
G-----------------5-5-5-5-5-5-5-5--------------------------------|
D-7-7-7-7-7-7-7-7-5-5-5-5-5-5-5-5-5-5-5-5-5-5-5-5-3-3-3-3-3-3-3-3|
A-7-7-7-7-7-7-7-7-3-3-3-3-3-3-3-3-5-5-5-5-5-5-5-5-3-3-3-3-3-3-3-3|
E-5-5-5-5-5-5-5-5-----------------3-3-3-3-3-3-3-3-1-1-1-1-1-1-1-1|



3.  Bridge

e-----------------------------|----------------------------------|
B-----------------------------|----------------------------------|
G---------5-7-------------5-7-|---------7-5----------------------|
D-7-7-7-7-5-7---6---6-6-6-5-7-|-7-7-7-7-7-5----3---3-3-3-3-3-3-3-|
A-7-7-7-7-3-5---6---6-6-6-3-5-|-7-7-7-7-5-3----3---3-3-3-3-3-3-3-|
E-5-5-5-5-------4---4-4-4-----|-5-5-5-5--------1---1-1-1-1-1-1-1-|


Aside from the distorted solos played over the bridge, thats pretty much it.



Here's the keyboard at the end:

e-12-10-12-------|
B-------------10-|
B----------------|
G----------------|
D----------------|
A----------------|
E----------------|
Comments