Marilyn Manson - Coma White Chords & Tabs

 

Coma White Chords & Tabs

Marilyn Manson Chords & Tabs

Version: 10 Type: Tab 0 ratings
1 star 2 stars 3 stars 4 stars 5 stars
comments

Coma White Tab

Coma White, Track 14 of Mechanical Animals. Standard tuning, but the keys might be
a bit off. The little post-chorus solo isn't completely right, but it gets you by.

riff 1:
--------------------------------------------------------------------------------|
---0---0---0---0-1-1----0---0---0---0-1-1----0---0---0---0-1-1--3-3-3-3-1-1-0-0-|
-2---2---2---2--------2---2---2---2--------2---2---2---2------------------------| x6
--------------------------------------------------------------------------------|
--------------------------------------------------------------------------------|
--------------------------------------------------------------------------------|

riff 2:
-------------------------------------------------------------------------|
-------------------------------------------------------------------------|
-------------------------------------------------------------------------| x2
-7-7-7-7-7-7-7-7-10-10-10-10-10-10-10-10-5-5-5-5-5-5-5-5-5-3-3-3-3-3-3-3-|
-7-7-7-7-7-7-7-7-10-10-10-10-10-10-10-10-5-5-5-5-5-5-5-5-5-3-3-3-3-3-3-3-|
-5-5-5-5-5-5-5-5--8--8--8--8--8--8--8--8-3-3-3-3-3-3-3-3-3-1-1-1-1-1-1-1-|

-----7-5-----7----------7--5--------7--------7-5-----7-------7-5-----5---|
-8----------------8----------------------8---------------8---------------|
-------------------------------------------------------------------------| keys
-------------------------------------------------------------------------|
-------------------------------------------------------------------------|
-------------------------------------------------------------------------|

riff 3:
--------------------------------------------------------------|
--------------------------------------------------------------|
--------------------------------------------------------------|
-7-7-7-7-10-12\6--6-6-6-10-12-7-7-7-7-12-10--3--3-3-3-3-3-3-3-|
-7-7-7-7-10-12\6--6-6-6-10-12-7-7-7-7-12-10--3--3-3-3-3-3-3-3-|
-5-5-5-5--8-10\4--4-4-4--8-10-5-5-5-5-10--8--1--1-1-1-1-1-1-1-|
[ Tab from: http://www.guitartabs.cc/tabs/m/marilyn_manson/coma_white_tab_ver_10.html ]
--------------------------------------------------------------------------------------------|
-10----10-------12-11-10--------------12-11\10-10----10-------13-12-11-10-------------------|
----12----12-12------------10-11-10-9-------------12----12-12--------------10-10-10-9-9-9-9-|
--------------------------------------------------------------------------------------------|
--------------------------------------------------------------------------------------------|
--------------------------------------------------------------------------------------------|

riff 1 (x5 instead of x6)
riff 2 twice

riff 4: three times
------------------------------------------------------------|
------------------------------------------------------------|
------------------------------------------------------------|
------------------------------------------------------------|
------------------------------------------------------------|
-5-5-5-5-8-10-4--4-4-4-8-10-5--5-5-5-10-8--1--1-1-1-1-1-1-1-|

-----------------------------------------------------------------------------------------|
-10----10-------12-11-10--------------12-11\10-10----10----13-12-11-10-------------------|
----12----12-12------------10-11-10-9-------------12----12--------------10-10-10-9-9-9-9-|
-----------------------------------------------------------------------------------------|
-----------------------------------------------------------------------------------------|
-----------------------------------------------------------------------------------------|

pause for Riff 2s keys to do the measure once

riff 5:
---------------------------------------------------------------------------------|
---------------------------------------------------------------------------------|
---------------------------------------------------------------------------------|
---------------------------------------------------------------------------------|
-7-7-7-7-7-7-7-7-10-10-10-10-10-10-10-10-12-12-12-12-12-12-12-12-3-3-3-3-3-3-3-3-|
-5-5-5-5-5-5-5-5--8--8--8--8--8--8--8--8-10-10-10-10-10-10-10-10-1-1-1-1-1-1-1-1-|

Riff 2 (with guitar 2 actually a guitar) twice
Comments