Marilyn Manson - Choklit Factory Chords & Tabs

 

Choklit Factory Chords & Tabs

Marilyn Manson Chords & Tabs

Version: 1 Type: Bass Tab 0 ratings
1 star 2 stars 3 stars 4 stars 5 stars
comments

Choklit Factory Bass Tab

Choklit Factory - Marilyn Manson
Jon Craven (nojnevarc@hotmail.com; www.geocities.com/larsramirez2001)
(enters @ 0:28)
(note: there are little runs missing in the first, third, and fourth riffs but it still sounds
close to what's transcribed)

Riff 1: (x8)
G:---------------|---------12---|---------------|---------12---|---------------|---------12---|
D:-------5-7-7-5-|-*****-9----9-|-------5-7-7-5-|-*****-9----9-|-------5-7-7-5-|-*****-9----9-|
A:-7--7----------|--------------|-7--7----------|--------------|-7--7----------|--------------|
E:---------------|--------------|---------------|--------------|---------------|--------------|

G:---------------|--------12---12-|
D:-------5-7-7-5-|-****-9----9----|
A:-7--7----------|----------------|
E:---------------|----------------|

Riff 2: (x2)
G:----------|-------------|----------|-------------|----------|-------------|------------|
D:----------|--------7--5-|----------|-------7-5h7-|----------|--------7--5-|------------|
A:----------|-------------|----------|-------------|----------|-------------|------------|
E:-0*******-|-3-0**-------|-0*******-|-3****-------|-0*******-|-3-0**-------|------------|

G:----------|
D:-5******/-|
A:----------|
E:----------|
[ Tab from: http://www.guitartabs.cc/tabs/m/marilyn_manson/choklit_factory_btab.html ]
Fill:
G:----------|----------|----------|-5***-7***-|
D:-5*******-|-********-|-********-|-----------|
A:----------|----------|----------|-----------|
E:----------|----------|----------|-----------|

Riff 1 (x4)

Fill 2:
G:-/7*******-|----------|-R--R--R--R-|-R--R--R--R-|-R--R--R--R-|-R--R--R--R-|----------|
D:-----------|----------|------------|------------|------------|------------|----------|
A:-----------|-5*******-|------------|------------|------------|------------|----------|
E:-----------|----------|------------|------------|------------|------------|-0*******-|

G:----------|----------|------------|
D:----------|----------|------7/--/-|
A:----------|----------|------------|
E:-********-|-0*******-|-****-------|

Riff 3: (x24)(runs missing)
G:-----------|-----------|
D:------5***-|-4***-7***-|
A:-----------|-----------|
E:-0***------|-----------|

Fill 3:
G:--------------|------------|
D:--------------|------------|
A:-7-R--R--R--R-|-R--R--R--R-|
E:--------------|------------|

Riff 1 (x3)
Riff 2

End:
G:----------|----------|----------|
D:-5*******-|-********-|-********-|
A:----------|----------|----------|
E:----------|----------|----------|

Break till end

====================================================================
Comments