Marilyn Manson - Better Of Two Evils Chords & Tabs

 

Better Of Two Evils Chords & Tabs

Marilyn Manson Chords & Tabs

Version: 1 Type: Tab 0 ratings
1 star 2 stars 3 stars 4 stars 5 stars
comments

Better Of Two Evils Tab

   
Better of Two Evils - Marilyn Manson
Tabbed by Tinboy

Tuning - Drop D

E B G D A D

open with G5 chord on "HEY!"

Intro

|----------------------------------------------------------------------------|
|----------------------------------------------------------------------------|
|----------------------------------------------------------------------------|
|---4-2-4-4--4-2-4-4--4-2-4-4--4-2-4-5---4-2-4-4--4-2-4-4--4-2-4-5-5-2-5-4---| x2
|---4-2-4-4--4-2-4-4--4-2-4-4--4-2-4-5---4-2-4-4--4-2-4-4--4-2-4-5-5-2-5-4---|
|---4-2-4-4--4-2-4-4--4-2-4-4--4-2-4-5---4-2-4-4--4-2-4-4--4-2-4-5-5-2-5-4---|

Bridge

|----------------------------------------------------------------------------|
|----------------------------------------------------------------------------|
|----------------------------------------------------------------------------|
|---5\4--5-5\4---5\4--5-5\4--------------------------------------------------| x2
|---x-x--x-x-x---x-x--x-x-x--------------------------------------------------|
|---5\4--5-5\4---5\4--5-5\4--------------------------------------------------|

Chorus - "haters call me bitch, call me faggot, call me whitey"

|----------------------------------------------------------------------------|
|----------------------------------------------------------------------------|
|----------------------------------------------------------------------------|
|---4-2-4-4--4-2-4-4--4-2-4-4--4-2-4-5---4-2-4-4--4-2-4-4--4-2-4-5-5-2-5-4---| x2
|---4-2-4-4--4-2-4-4--4-2-4-4--4-2-4-5---4-2-4-4--4-2-4-4--4-2-4-5-5-2-5-4---|
|---4-2-4-4--4-2-4-4--4-2-4-4--4-2-4-5---4-2-4-4--4-2-4-4--4-2-4-5-5-2-5-4---|

|----------------------------------------------------------------------------|
|----------------------------------------------------------------------------|
|----------------------------------------------------------------------------|
|---5\4--5-5\4---5\4--5-5\4--------------------------------------------------| x4
|---x-x--x-x-x---x-x--x-x-x--------------------------------------------------|
|---5\4--5-5\4---5\4--5-5\4--------------------------------------------------|

Bridge

|----------------------------------------------------------------------------|
|----------------------------------------------------------------------------|
|----------------------------------------------------------------------------|
|---5\4--5-5\4---5\4--5-5\4--------------------------------------------------| x2
|---x-x--x-x-x---x-x--x-x-x--------------------------------------------------|
|---5\4--5-5\4---5\4--5-5\4--------------------------------------------------|

Chorus
[ Tab from: http://www.guitartabs.cc/tabs/m/marilyn_manson/better_of_two_evils_tab.html ]
|----------------------------------------------------------------------------|
|----------------------------------------------------------------------------|
|----------------------------------------------------------------------------|
|---4-2-4-4--4-2-4-4--4-2-4-4--4-2-4-5---4-2-4-4--4-2-4-4--4-2-4-5-5-2-5-4---| x2
|---4-2-4-4--4-2-4-4--4-2-4-4--4-2-4-5---4-2-4-4--4-2-4-4--4-2-4-5-5-2-5-4---|
|---4-2-4-4--4-2-4-4--4-2-4-4--4-2-4-5---4-2-4-4--4-2-4-4--4-2-4-5-5-2-5-4---|

|----------------------------------------------------------------------------|
|----------------------------------------------------------------------------|
|----------------------------------------------------------------------------|
|---5\4--5-5\4---5\4--5-5\4--------------------------------------------------| x4
|---x-x--x-x-x---x-x--x-x-x--------------------------------------------------|
|---5\4--5-5\4---5\4--5-5\4--------------------------------------------------|

|----------------------------------------------------------------------------|
|----------------------------------------------------------------------------|
|------5-5-----5-5-----5-5-----5-5-5-5-5-5-----------------------------------|
|---4--5-5--4--5-5--4--5-5--4--5-5-5-5-5-5-----------------------------------| x4
|---4--3-3--4--3-3--4--3-3--4--3-3-3-3-3-3-----------------------------------|
|---4-------4-------4-------4------------------------------------------------|

Bridge

|----------------------------------------------------------------------------|
|----------------------------------------------------------------------------|
|----------------------------------------------------------------------------|
|---5\4--5-5\4---5\4--5-5\4--------------------------------------------------| x2
|---x-x--x-x-x---x-x--x-x-x--------------------------------------------------|
|---5\4--5-5\4---5\4--5-5\4--------------------------------------------------|

|----------------------------------------------------------------------------|
|----------------------------------------------------------------------------|
|----------------------------------------------------------------------------|
|---7v----4v-----------------------------------------------------------------|
|----------------------------------------------------------------------------|
|----------------------------------------------------------------------------|
  volume swells

Chorus

|----------------------------------------------------------------------------|
|----------------------------------------------------------------------------|
|----------------------------------------------------------------------------|
|---4-2-4-4--4-2-4-4--4-2-4-4--4-2-4-5---4-2-4-4--4-2-4-4--4-2-4-5-5-2-5-4---| x2
|---4-2-4-4--4-2-4-4--4-2-4-4--4-2-4-5---4-2-4-4--4-2-4-4--4-2-4-5-5-2-5-4---|
|---4-2-4-4--4-2-4-4--4-2-4-4--4-2-4-5---4-2-4-4--4-2-4-4--4-2-4-5-5-2-5-4---|

|----------------------------------------------------------------------------|
|----------------------------------------------------------------------------|
|----------------------------------------------------------------------------|
|---5\4--5-5\4---5\4--5-5\4--------------------------------------------------| x4
|---x-x--x-x-x---x-x--x-x-x--------------------------------------------------|
|---5\4--5-5\4---5\4--5-5\4--------------------------------------------------|

that's all

email - tinboy50@hotmail.com
Comments