Marilyn Manson - Beautiful People Chords & Tabs

 

Beautiful People Chords & Tabs

Marilyn Manson Chords & Tabs

Version: 3 Type: Tab 0 ratings
1 star 2 stars 3 stars 4 stars 5 stars
comments

Beautiful People Tab

-------------------------------------------------------------------------------
			     Beautiful People – Marilyn Manson
-------------------------------------------------------------------------------

By: Adam Haque
This is the song in full. I play it by capping the frets but you can do it with three fingers all on the same fret but its easier just capping it.
This is faultless!

Tune bottom E to D

Obviously, heavy distortion throughout

e|---------------------------------------------------------------------------|
B|---------------------------------------------------------------------------|
G|---------------------------------------------------------------------------|
D|---0--3--0----------------------0--3--0-------------------------0--3--0----|
A|---0--3--0----------------------0--3--0-------------------------0--3--0----|
D|---0--3--0----------------------0--3--0-------------------------0--3--0----|

e|---------------------------------------------------------------------------|
B|---------------------------------------------------------------------------|
G|---------------------------------------------------------------------------|
D|-----0--6--0--6--0-------0--6--0--6--0-------0--3--0-----------------------| X4
A|-----0--6--0--6--0-------0--6--0--6--0-------0--3--0-----------------------|
D|-----0--6--0--6--0-------0--6--0--6--0-------0--3--0-----------------------|

e|---------------------------------------------------------------------------|
B|---------------------------------------------------------------------------|
G|-----77777---------66666---------55555---------44444-----------------------|
D|---------------------------------------------------------------------------| X 2
A|-----55555---------44444---------33333---------22222-----------------------|
D|---------------------------------------------------------------------------|

e|---------------------------------------------------------------------------|
B|---------------------------------------------------------------------------|
G|---------------------------------------------------------------------------|
D|-----0--6--0--6--0-------0--6--0--6--0-------0--3--0-----------------------| X4
A|-----0--6--0--6--0-------0--6--0--6--0-------0--3--0-----------------------|
D|-----0--6--0--6--0-------0--6--0--6--0-------0--3--0-----------------------|
[ Tab from: http://www.guitartabs.cc/tabs/m/marilyn_manson/beautiful_people_tab_ver_3.html ]
e|---------------------------------------------------------------------------|
B|---------------------------------------------------------------------------|
G|---------------------------------------------------------------------------|
D|-----0030------------------------------------------------------------------| X 8
A|-----0030------------------------------------------------------------------|During “ooohahhh”
D|-----0030------------------------------------------------------------------|


e|---------------------------------------------------------------------------|
B|---------------------------------------------------------------------------|
G|---------------------------------------------------------------------------|
D|-----0--6--0--6--0-------0--6--0--6--0-------0--3--0-----------------------| X4
A|-----0--6--0--6--0-------0--6--0--6--0-------0--3--0-----------------------|
D|-----0--6--0--6--0-------0--6--0--6--0-------0--3--0-----------------------|

e|---------------------------------------------------------------------------|
B|---------------------------------------------------------------------------|
G|-----77777---------66666---------55555---------44444-----------------------|
D|---------------------------------------------------------------------------| X 2
A|-----55555---------44444---------33333---------22222-----------------------|
D|---------------------------------------------------------------------------|

e|---------------------------------------------------------------------------|
B|---------------------------------------------------------------------------|
G|---------------------------------------------------------------------------|
D|-----0--6--0--6--0-------0--6--0--6--0-------0--3--0-----------------------| X 4
A|-----0--6--0--6--0-------0--6--0--6--0-------0--3--0-----------------------|
D|-----0--6--0--6--0-------0--6--0--6--0-------0--3--0-----------------------|

e|---------------------------------------------------------------------------|
B|---------------------------------------------------------------------------|
G|---------------------------------------------------------------------------|
D|-----0030------------------------------------------------------------------| X 4
A|-----0030------------------------------------------------------------------|During “ooohahhh”
D|-----0030------------------------------------------------------------------|


e|---------------------------------------------------------------------------|
B|---------------------------------------------------------------------------|
G|---------------------------------------------------------------------------|
D|-----0--6--0--6--0-------0--6--0--6--0-------0--3--0-----------------------| X 12
A|-----0--6--0--6--0-------0--6--0--6--0-------0--3--0-----------------------|Until end of song
D|-----0--6--0--6--0-------0--6--0--6--0-------0--3--0-----------------------|

That’s it! Its pretty easy really!

===============================================================================
Comments