Marilyn Manson - Beautiful People Chords & Tabs

 

Beautiful People Chords & Tabs

Marilyn Manson Chords & Tabs

Version: 1 Type: Tab 2 ratings
1 star 2 stars 3 stars 4 stars 5 stars
comments

Beautiful People Tab

#----------------------------------PLEASE NOTE---------------------------------#
#This file is the author's own work and represents their interpretation of the #
#song. You may only use this file for private study, scholarship, or research. #
#------------------------------------------------------------------------------#

Intro

E|-----------------------------------------------------------------------
B|-----------------------------------------------------------------------
G|-----------------------------------------------------------------------
D|-x--x--x--x--x---------------0----3---0-----0----3---0-------0---3---0-
A|-x--x--x--x--x----repeat-----0----3---0-----0----3---0-------0---3---0-
E|-x--x--x--x--x--------------------1--------------1---------------1-----

-----------------------------------------------------|X4
-----------------------------------------------------|
-----------------------------------------------------|
-0--3---0------0--6--0--6--0-----------0--6--0--6--0-|
-0--3---0------0--6--0--6--0-----------0--6--0--6--0-|
----1-------------4-----4-----------------4-----4----|

Verse 1 (Part One)

(There is no guitar in part one of the verse, The is just A bass line)

(I don't want  you and I don't need  you)

Verse 1 (Part Two)

E|-------------------------------------------|
B|-------------------------------------------|
G|-------------------------------------------|
D|--x--x--x--x--x--x--x--x--x--x--x--x--x--x-|
A|--x--x--x--x--x--x--x--x--x--x--x--x--x--x-|
E|--x--x--x--x--x--x--x--x--x--x--x--x--x--x-|

(the beautiful people the beautiful people)


Bridge
[ Tab from: http://www.guitartabs.cc/tabs/m/marilyn_manson/beautiful_people_tab.html ]
E|--------------------------------------------------|X2
B|--------------------------------------------------|
G|-7--7--7--7------6--6--6------5--5--5-----4--4--4-|
D|-7--7--7--7------6--6--6------5--5--5-----4--4--4-|
A|-5--5--5--5------4--4--4------3--3--3-----2--2--2-|
E|--------------------------------------------------|

(There's no time to discriminate hate)

Chorus

E|--------------------------------------------------------|
B|--------------------------------------------------------|
G|--------------------------------------------------------|
D|--0--6--0--6--0-----------0--6--0--6--0---------0--3--0-|
A|--0--6--0--6--0-----------0--6--0--6--0---------0--3--0-|
E|-----4-----4-----------------4-----4---------------1----|

(Hey! You! What do you see?)

Riff 1

E|-----------------------------------|
B|-----------------------------------|
G|-----------------------------------|
D|-0--0--0--3--0-------0--0--0--3--0-|
A|-0--0--0--3--0-------0--0--0--3--0-|
E|-0--0--0--3--0-------0--0--0--3--0-|

Ah, ah,
Ah, ah,

Verse 2 

E|-----------------------------------------------------------
B|-----------------------------------------------------------
G|--7---------------------(7)--(7)--(7)--(7)-----------------
D|----------0--0--0--3--0----------------------0--0--0--3--0-
A|----------0--0--0--3--0----------------------0--0--0--3--0-
E|----------0--0--0--3--0----------------------0--0--0--3--0-

---------------------|
---------------------|
-7(7)--(7)--(7)--(7)-|
---------------------|
---------------------|
---------------------|

(The worms will live in every host)

Order Of Song
-------------
Intro
Verse 1
Bridge
Chorus
Riff 1
Verse
Chorus
Bridge
Chorus ( With out voice)
Riff 1 
chorus X4
Comments