Marilyn Manson - Beautiful People Chords & Tabs

 

Beautiful People Chords & Tabs

Marilyn Manson Chords & Tabs

Version: 5 Type: Bass Tab 0 ratings
1 star 2 stars 3 stars 4 stars 5 stars
comments

Beautiful People Bass Tab

   
written by ryan. email: sk8ingsnotacrime@aol.com



play 4x
g---------------------------
d---------------------------
a---------------------------
e-0-2-0---------------------


main riff 12x
g---------------------------
d---------------------------
a---------------------------
e-0-4-0-4-0-0-4-0-4-0-0-2-0-


then play this twice
g---------------------------
d---------------------------
a-6-5-4-9-------------------
e---------------------------
[ Tab from: http://www.guitartabs.cc/tabs/m/marilyn_manson/beautiful_people_btab_ver_5.html ]
chorus  play 17x
g---------------------------
d---------------------------
a---------------------------
e-0-4-0-4-0-0-4-0-4-0-0-2-0-

play twice
g---------------------------
d---------------------------
a---------------------------
e-6-5-4-9-------------------


play 3x
g---------------------------
d---------------------------
a---------------------------
e-0-0-0-2-0-----------------


g---------------------------
d---------------------------
a---------------------------
e-0-0-0-0-0-0---------------


play  12x
g---------------------------
d---------------------------
a---------------------------
e-0-4-0-4-0-0-4-0-4-0-0-2-0-
Comments