Marilyn Manson - Astonishing Panorama Of The Endtimes Chords & Tabs

 

Astonishing Panorama Of The Endtimes Chords & Tabs

Marilyn Manson Chords & Tabs

Version: 1 Type: Bass Tab 2 ratings
1 star 2 stars 3 stars 4 stars 5 stars
comments

Astonishing Panorama Of The Endtimes Bass Tab

   
Song: "Astonishing Panorama Of The Endtimes"
Artist: Marilyn Manson
Album: "The Last Tour On Earth"
Tabbed by: Damian (damian.pamminger@thedoghousemail.com)
Tuning: E,A,D,G (Standard)

Intro:(0:18)
G-|--------------------------------------------------------------------
D-|--------------------------------------------------------------------
A-|--------------------------------------------------------------------
E-|---------0--5--6--0---------0--5--6--0---------0--5--6--0---------0-

G-|---------|
D-|---------|
A-|---------|
E-|-5--6--0-|

1st Verse(0:30)/ 3rd verse (1:37):
G-|----------------------------------------------------------|
D-|----------------------------------------------------------|
A-|----------------------------------------------------------|
E-|---------0--5--6--0---------0--5--6--0---------0--5--6--0-|

1st Chorus:(0:42)
G-|------------------------------------------------------------------|
D-|------------------------------------------------------------------|
A-|------------------------------------------------------------------|
E-|-0--0--6--5--0--0-0--5--4--0--0---0--0--6--5--0--0-0---0--5--6--0-|

2nd Verse:(0:48)
G-|----------------------------------------------------------------------
D-|----------------------------------------------------------------------
A-|----------------------------------------------------------------------
E-|---------0--5--6--0---------0--5--6--0---------0--5--6--0--------0--5-

G-|---|
D-|---|
A-|---|
E-|-6-|

2nd Chorus:(1:00)/ 3rd Chorus:(1:49):
G-|------------------------------------------------------------------
D-|------------------------------------------------------------------
A-|------------------------------------------------------------------
E-|-0--0--6--5--0--0-0--5--4--0--0---0--0--6--5--0--0-0---0--5--6--0-

G-|---------------------------------------------------------------|
D-|---------------------------------------------------------------|
A-|---------------------------------------------------------------|
E-|-0--0--6--5--0--0-0--5--4--0--0---0--0--6--5--0--0-0---0--5--6-|

1st Bridge:(1:12)/ 2nd Bridge:(2:01):
G-|------------------------------------------------------------------|
D-|------------------------------------------------------------------|
A-|------------------------------------------------------------------|
E-|-0---------5--6---0---------5--6---0--------5--6---0---------5--6-|
    *hold all of these open Es.
[ Tab from: http://www.guitartabs.cc/tabs/m/marilyn_manson/astonishing_panorama_of_the_endtimes_btab.html ]
1st Fill:(1:25)/ 2nd Fill (2:14):
G-|----------------------------------------------------------|
D-|----------------------------------------------------------|
A-|----------------------------------------------------------|
E-|---------0--5--6--0---------0--5--6--0---------0--5--6--0-|

3rd Bridge:(2:32) (Guitar plays 1st time then bass comes in 2nd time)
G-|---------------------------------------------------------------------
D-|---------------------------------------------------------------------
A-|---------------------------------------------------------------------
E-|-5-4-3-0--5-4-3-0--5-4-3-0--4-5--0-0--5-4-3-0--5-4-3-0--5-4-3-0--4-5-

G-|---------------------------------------------------------------------
D-|---------------------------------------------------------------------
A-|---------------------------------------------------------------------
E-|-0-0--5-4-3-0--5-4-3-0--5-4-3-0--4-5--0-0--5-4-3-0--5-4-3-0--5-4-3-0-

G-|----------------------------------------------------------------------
D-|----------------------------------------------------------------------
A-|----------------------------------------------------------------------
E-|-4-5--0-0--5-4-3-0--5-4-3-0--5-4-3-0--4-5--0-0--5-4-3-0--5-4-3-0--5-4-

G-|---------------|
D-|---------------|
A-|---------------|
E-|-3-0--4-5--0-0-|

Guitar Solo:(2:53)
G-|--------------------------------------------------------------------
D-|--------------------------------------------------------------------
A-|--------------------------------------------------------------------
E-|---------0--5--6--0---------0--5--6--0---------0--5--6--0---------0-

G-|---------------------------------------------------------------------
D-|---------------------------------------------------------------------
A-|---------------------------------------------------------------------
E-|-5--6--0---------0--5--6--0---------0--5--6--0---------0--5--6--0----

G-|--------------------------------|
D-|--------------------------------|
A-|--------------------------------|
E-|-----0--5--6--0---------0--5--6-|

rest at 3:20 until 4th/Final Chorus at 3:45

4th Chorus:(3:45)
G-|------------------------------------------------------------------
D-|------------------------------------------------------------------
A-|------------------------------------------------------------------
E-|-0--0--6--5--0--0-0--5--4--0--0---0--0--6--5--0--0-0---0--5--6--0-

G-|------------------------------------------------------------------|
D-|------------------------------------------------------------------|
A-|------------------------------------------------------------------|
E-|-0--0--6--5--0--0-0--5--4--0--0---0--0--6--5--0--0-0---0--5--6--0-|

Comments