Marilyn Manson - Antichrist Superstar Chords & Tabs

 

Antichrist Superstar Chords & Tabs

Marilyn Manson Chords & Tabs

Version: 3 Type: Tab 0 ratings
1 star 2 stars 3 stars 4 stars 5 stars
comments

Antichrist Superstar Tab

   
band:		     Marilyn Manson
song:		     Antichrist Superstar
transcribed by:      Zach Harper
homepage:	     http://zachharper.myknet.org/

this is my version of this song which is played differently,
but sounds pretty good.
This whole tab is played in order.

gtr. I, II (C G C f a d)
drop c tuning

Intro
0:19 6x
d|------------|
a|------------|
f|--5--5------|
C|--0--0------|
G|--0--0------|
C|--0--0------|

fig. 1 repeat 2x
3x					  1x
d|-----------------------------|-------------------------------|
a|-----------------------------|-------------------------------|
f|-------------------5--5b-----|-------------------------------|
C|--0--0---3--0----------------|--0--0---3--0-----6--5---3-----|
G|--0--0---3--0------3--3b-----|--0--0---3--0-----6--5---3-----|
C|--0--0---3--0----------------|--0--0---3--0-----6--5---3-----|

fig. 2
verse 1
16x
d|----------------|
a|----------------|
f|----------------|
C|--0--0---3--0---|
G|--0--0---3--0---|
C|--0--0---3--0---|

fig. 1 repeat 2x
3x	                        1x
d|-----------------------------|-------------------------------|
a|-----------------------------|-------------------------------|
f|-------------------5---5b----|-------------------------------|
C|--0--0---3--0----------------|--0--0---3--0-----6--5---3-----|
G|--0--0---3--0------3---3b----|--0--0---3--0-----6--5---3-----|
C|--0--0---3--0----------------|--0--0---3--0-----6--5---3-----|

fig. 3
gtr. I
3x                                    1x
d|------------------------------------|-------------|
a|------------------------------------|-------------|
f|------------------------------------|-------------|
C|--6---5---4---0--3--0---0--0--3--0--|--6---5---4--|
G|--6---5---4---0--3--0---0--0--3--0--|--6---5---4--|
C|--6---5---4---0--3--0---0--0--3--0--|--6---5---4--|

w/ verses
gtr. II arranged for guitar
d|--------------------|
a|--22--21--20--------|
f|--------------18b---|
C|--------------------|
G|--------------------|
C|--------------------|
[ Tab from: http://www.guitartabs.cc/tabs/m/marilyn_manson/antichrist_superstar_tab_ver_3.html ]
fig. 4
3x                         1x
d|-------------------------|-----------------------|
a|-------------------------|-----------------------|
f|-------------------------|-----------------------|
C|--0--0---3--0---6--5--4--|----0--3--0---6--5--4--|
G|--0--0---3--0---6--5--4--|----0--3--0---6--5--4--|
C|--0--0---3--0---6--5--4--|----0--3--0---6--5--4--|

w/ fig. 4
1:57
gtr. II					       slack bar  2:08
d|---------------------------------------------------------|
a|----------------------------/\/\/\/\/\-----/\------------|
f|-20-------(20)----------(20)----------(20)/--\-----------|
C|----------------------------------------------\----------|
G|-----------------------------------------------\---------|
C|---------------------------------------------------------|

verses
fig. 2
16x
d|----------------|
a|----------------|
f|----------------|
C|--0--0---3--0---|
G|--0--0---3--0---|
C|--0--0---3--0---|

fig. 1 repeat 2x
3x				 1x
d|-----------------------------|-------------------------------|
a|-----------------------------|-------------------------------|
f|-------------------5---5b----|-------------------------------|
C|--0--0---3--0----------------|--0--0---3--0-----6--5---3-----|
G|--0--0---3--0------3---3b----|--0--0---3--0-----6--5---3-----|
C|--0--0---3--0----------------|--0--0---3--0-----6--5---3-----|

fig. 4
3x                                    1x
d|------------------------------------|-------------|
a|------------------------------------|-------------|
f|------------------------------------|-------------|
C|--6---5---4---0--3--0---0--0--3--0--|--6---5---4--|
G|--6---5---4---0--3--0---0--0--3--0--|--6---5---4--|
C|--6---5---4---0--3--0---0--0--3--0--|--6---5---4--|

Interlude
3:18 16x
d|------------|
a|------------|
f|--5--5------|
C|--0--0------|
G|--0--0------|
C|--0--0------|

8x                                    

d|--------------------------------------|
a|--------------------------------------|
f|--------------------------------------|
C|--6---5---4----0--0--3--0----0--3--0--|
G|--6---5---4----0--0--3--0----0--3--0--|
C|--6---5---4----0--0--3--0----0--3--0--|

16x
d|------------|
a|------------|
f|--5--5------|
C|--0--0------|
G|--0--0------|
C|--0--0------|
Comments