Marilyn Manson - Antichrist Superstar Chords & Tabs

 

Antichrist Superstar Chords & Tabs

Marilyn Manson Chords & Tabs

Version: 3 Type: Bass Tab 0 ratings
1 star 2 stars 3 stars 4 stars 5 stars
comments

Antichrist Superstar Bass Tab

Antichrist Superstar - Marilyn Manson

By: Jon Craven (i_apathy@hotmail.com)
For questions, comments, feedback, an outline of the timing, write the above
address.

Note:
  -Played with a pick.

(4/4)(86 bpm)
Tuned two and a half steps down (low to high: B E A D)

R - quarter rest
r - eighth rest
* - note held for an eighth beat
. - staccato note
|-R-| - rest for one measure

Intro pt.1 (interlude/outro): (x4)(0:19)
|----------------|
|----------------|
|----------------|
|0-0-R---0-0-R---|

Intro pt.2 (pre-chorus): (x2)(0:30)
|-----------------|-----------------|-----------------|----------------|
|-----------------|-----------------|-----------------|----------------|
|-----------------|-----------------|-----------------|----------------|
|0-0-3-0-r-10-*-*-|0-0-3-0-r-10-*-*-|0-0-3-0-r-10-*-*-|0-0-3-0-6-5-3---|

Verse: (x8)(0:52)
|----------------|
|----------------|
|------.-------.-|
|0-0-3-0-0-0-3-0-|

Pre-chorus (x2)
[ Tab from: http://www.guitartabs.cc/tabs/m/marilyn_manson/antichrist_superstar_btab_ver_3.html ]
Chorus: (x4)(1:37)
|------------------------|----------------|
|------------------------|----------------|
|------------------------|----------------|
|15-15-15-15-14-14-13-13-|0-0-3-0-r-0-3-0-|

Bridge 1: (x4)(1:56)
|----------------|
|----------------|
|----------------|
|0-0-3-0-6-5-3---|

Verse (x8)
Pre-chorus (x2)
Chorus (x4)
Rest for two measures
Interlude (x8)
Chorus (x4)

Bridge 2: (4:02)
|---|----------------|------------------------|----------------|
|---|----------------|------------------------|----------------|
|-R-|----------------|------------------------|----------------|
|---|0-0-3-0-r-0-3-0-|15-15-15-15-14-14-13-13-|0-0-3-0-r-0-3-0-|

|------------------------|----------------|------------------------|
|------------------------|----------------|------------------------|
|------------------------|----------------|------------------------|
|15-15-15-15-14-14-13-13-|0-0-3-0-r-0-3-0-|15-15-15-15-14-14-13-13-|

Outro (x8)
Rest till end
Comments