Marilyn Manson - Angel With The Scabbed Wings Chords & Tabs

 

Angel With The Scabbed Wings Chords & Tabs

Marilyn Manson Chords & Tabs

Version: 3 Type: Bass Tab 0 ratings
1 star 2 stars 3 stars 4 stars 5 stars
comments

Angel With The Scabbed Wings Bass Tab

Angel with the Scabbed Wings - Marilyn Manson

By: Jon Craven (i_apathy@hotmail.com)
For questions, comments, feedback, an outline of the timing, write the above
address.

Note:
  -Played with a pick.

(4/4, changes noted)(109 bpm)
Tuned a half step down

|-R-| - rest for one measure
R - quarter rest
r - eighth rest
/ - slide up
\ - slide down
x - dead note
* - note held for an eighth beat

Intro pt.1:
|--|---|--|---|---|-------------------|
|3:|---|4:|---|---|-------------------|
|4:|---|4:|---|---|-------------------|
|--|-R-|--|-R-|-R-|R---R---R---r-/12\-|

Intro pt.2 (verse 2): (x8)(0:08)
|----------------|
|----------------|
|----------------|
|1-0-r-1-r-2-r-3-|

Intro pt.3 (outro pt.1): (x4)(0:25)
|----------------|----------------|
|2-22-2223-33-333|2-22-2223-3-0-0-|
|----------------|----------------|
|----------------|----------------|

Verse 1 (bridge): (x12)(0:43)
|--------4-------|
|3-2-x-xx2-xx-xxx|
|----------------|
|----------------|

Pre-chorus: (x8)(1:10)
|----------------|
|3-2-r-xx-xx-xxxx|
|----------------|
|----------------|
[ Tab from: http://www.guitartabs.cc/tabs/m/marilyn_manson/angel_with_the_scabbed_wings_btab_ver_3.html ]
Chorus: (x4)(1:28)
|------------------|-----------------|
|------------------|-----------------|
|------------------|-----------------|
|5-*-*-*-8---11-12-|0-0-0--00-0012---|

Fill: (x4)(1:45)
|----------------|----------------|----------------|----------------|
|----------------|----------------|----------------|----------------|
|----------------|----------------|----------------|----------------|
|1-0-r-1---2---3-|1-0-r-1---2---3-|1-0-r-1---2---3-|1-0-r-1---2---3-|

|----------------|
|----------------|
|----------------|
|1-0-R---R---R---|

Verse 2 (x8)
Chorus (x4)

Interlude: (2:32)
|----------------|----------------|----------------|----------------|
|----------------|----------------|----------------|----------------|
|r-2---1-*-*-*-*-|----------------|r-2---1-*-*-*-*-|----------------|
|----------------|1-1-1-1-2-2-3-3-|----------------|1-1-1-1-2-2-3-3-|

|----------------|----------------|----------------|----------------|
|----------------|----------------|----------------|3-3-3-3-4-4-5-5-|
|r-2---1-*-*-*-*-|----------------|r-2---1-*-*-*-*-|----------------|
|----------------|1-1-1-1-2-2-3-3-|----------------|----------------|

Bridge (x10)
Outro pt.1 (x8)

Outro pt.2: (3:48)
|----------------|
|3-2-R---R---R---|
|----------------|
|----------------|

Rest till end
Comments