Marillion - Waterhole Chords & Tabs

 

Waterhole Chords & Tabs

Marillion Chords & Tabs

Version: 1 Type: Bass Tab 0 ratings
1 star 2 stars 3 stars 4 stars 5 stars
comments

Waterhole Bass Tab

Standard Tuning

INTRO

|-----------------|-----------------|-----------------|-----------------|
|-----------------|-----------------|-----------------|-----------------|
|-0---------------|-----------------|-----------------|-----------------|
|-----------------|-----------------|-----------------|-----------------|

|-----------------|
|-----------------|
|-----------------|
|-----------------|

VERSE

|-----------------|-----------------|-----------------|-----------------|
|--------2-1--1---|--------2-1------|--------2-1--1---|--------2-1------|
|-0---023----2--32|-0---023----2----|-0---023----2--32|-0---023----2----|
|-----------------|-------------0---|-----------------|-------------0000|

|-----------------|-----------------|-----------------|-----------------|
|--------2-1--11--|--------2-1------|--------2-1--1---|--------2-1-2-1--|
|-0---023----2--32|-0--0023----2----|-0---023----2--32|-0--0023-------2-|
|-----------------|-------------0---|-----------------|-----------------|
                                                                    x3
|-----------------|-----------------|-----------------|-----------------||
|*-------2-1--11--|--------2-1------|--------2-1--1---|--------2-1-----*||  
|*0---023----2--32|-0--0023----2----|-0---023----2--32|-0--0023----2---*||
|-----------------|-------------0---|-----------------|-------------0000||

|-----------------|-----------------|
|-------------7\--|-------------7---|
|-0---7\-0-0-0----|-0---7\-0-0-7--7\|
|-----------------|-----------------|

CHORUS

|-4-4-------------|-4-\-------------|-4-\-------------|-4-\-----44444444|
|--------2-2-2----|--------2-1-2-2--|--------2-2-2----|-----------------|
|----------------5|-----------------|----------------5|--------5--------|
|-----0-------0-0-|-----0---------0-|-----0-------0-0-|-----0-0---------|

|-----------------|-----------------|
|-----------------|-----------------|
|-2---------------|-----------------|
|-----------------|-----------------|

VERSE
[ Tab from: http://www.guitartabs.cc/tabs/m/marillion/waterhole_btab.html ]
|-----------------|-----------------|-----------------|--------2-2-22222|
|--------2-1--1---|-----------------|--------2-1--1---|-----------------|
|-0---023----2--32|-0---0233-3-3----|-0---023----2--32|-0---023---------|
|-----------------|-------------0---|-----------------|-----------------|

|-----------------|-----------------|-----------------|-----------------|
|--------2-1--11--|--------2-1------|--------2-1--1---|--------2-1------|
|-0---023----2--32|-0--0023----2----|-0---023----2--32|-0--0023----12222|
|-----------------|-------------0---|-----------------|-----------------|

|-----------------|-----------------|-----------------|-----------------||
|*-------2-1--11--|--------2-1------|--------2-1--1---|--------2-1-----*||
|*0---023----2--32|-0--0023----2----|-0---023----2--32|-0--0023----2---*||
|-----------------|-------------0---|-----------------|-------------0000||

|-----------------|-----------------|-----------------|-----------------|
|--------2-1--11--|--------2-1------|-------------7\--|-------------7---|
|-0---023----2--32|-0--0023----2----|-0---7\-0-0-0----|-0---7\-0-0-7--7\|
|-----------------|-------------0---|-----------------|-----------------|

CHORUS

|-4-\-------------|-4-\-------------|-4-\-------------|-4-\-----44444444|
|--------2-2-2----|--------2-2-2----|--------2-2-2----|-----------------|
|----------------5|-------------0-2-|----------------5|--------5--------|
|-----0-------0-0-|-----0-----------|-----0-------0-0-|-----0-0---------|

OUTRO

|-2---------------|-----------------|-----------------|-----------------|
|-----------------|-----------------|-----------------|-----------------|
|-----------------|-----------------|-----------------|-----------------|
|-----------------|-----------------|-----------------|-----------------|

|-----------------|-0-0-0-0-0-0-0-0-|-0-0-0-0-0-0-0-0-|-0-0-0---0-0-0-0-||
|-----------------|-----------------|-----------------|-------3---------||
|-----------------|-----------------|-----------------|-----------------||
|-----------------|-----------------|-----------------|-----------------||
Comments