Marillion - Kayleigh Chords & Tabs

 

Kayleigh Chords & Tabs

Marillion Chords & Tabs

Version: 2 Type: Bass Tab 0 ratings
1 star 2 stars 3 stars 4 stars 5 stars
comments

Kayleigh Bass Tab

Song:   Kayleigh
Artist: Marilion
Album:  Misplaced Childhood
Autor:  Ramondo Kok

warning!! there are many differences between the album version and 
the moren known single version. I have written the album version.
the differences are: no intro and outro and a shorter solo

the whole album is one song so it sounds good if you play pseudo silk komone
before and lavender after this song
I have not marked al the bars, i cant read notes so i only marked the ones
i was sure of


listen well, sometimes it looks that he does more than he really does

intro:
G||--------|-------|---------|------||
D||--------|-------|---------|------||
A||-2~~----|-2~~~--|-4\s(2)--|-2~~--||
E||--------|-------|---------|------||

G||------|--------|------------------|----------|---------|------|-----------||
D||*-----|--------|------------55-4--|------7\s-|---------|------|----------*||
A||*2----|--------|-2--------------5-|-2--------|---------|-2----|----------*||
E||----5-|-2--3--5|---5--2-33--------|----5-----|-2--3--5-|----5-|-2-33-33-5-||

chorus (no bars specified)
G||-----------------------------------------||-------------------------------|
D||*----7\---------------5-4---------------*||-----/s12---------------5-4----|
A||*5-5----5-5--3-2-----5----5---5-----4-5-*||-5-5------5-5--3-2-----5----5--|
E||-----------------5-3------------2-3------||-------------------5-3---------|
             
G|-----7-----|----------12-11------------------------||
D|-/s9---9-7-|-----/s12-------12-----------------5---||
A|-----------|-5-5---------------12--3-2-------5---5-||
E|-----------|---------------------------5-3-3-------||


solo:
G||--------|------|-------|---------------|-------2--|--------|
D||--------|------|-------|------5h7-5----|-----2----|--------|
A||-2----7-|------|-2-----|------------5--|-2-0------|--------|
E||----5---|-2--3-|----5--|-2--3----------|----------|-2--3---|
[ Tab from: http://www.guitartabs.cc/tabs/m/marillion/kayleigh_btab_ver_2.html ]
G|----------------------|----------5------|-----------|-------|
D|----------------5-4---|--------5--------|-----------|-------|
A|-2-0----------------5-|-2---0-----------|-2-----7---|-------|
E|------5\s3-2-3--------|------------2-3--|----5----5-|-2--3--|

G|------|------------|---------------|-------2----------|-------2------------|
D|------|------5-4---|---------5-4-2-|-----2----4-------|-----2---4------5---|
A|-2--0-|----------5-|-2-0-----------|-2-0--------4-----|-2-0-------4------5-|
E|------|-2--3-------|-----2-3-------|--------------2-3-|-------------2-3----|

G|-------------------------------||
D|-----7----------------5-4------||
A|-5-5---5-5--3-2-----5-----5----||
E|----------------5-3------------||

                               vocals:
G|-------------6--------------|------|------|------|-----------|--------|
D|---------4-6---6-4----------|------|------|------|-----7-6---|--------|
A|--4---4------------4----4---|-4--2-|------|-4--2-|---------7-|-4--2---|
E|----------------------------|------|-4-5--|------|-4-5-------|--------|

G|------|---------------|------|--------|--------|----------|-------|
D|------|---------------|------|--------|------4-|--------7-|-------|
A|------|-4--2--------2-|-4-2--|------2-|-4--2---|------7---|-4--2--|
E|-4--5-|-------4-5-5---|------|-4--5---|--------|-4--5-----|-------|

G|------------||-----------------------------------------||------------|
D|------------||*-----7------------------5-4------------*||-----7------|
A|----------2-||*-5-5----5-5---3-2-----5-----5--5-----4-*||-5-5---5-5--|
E|-4--5--5----||-------------------5-3------------2-3----||------------|

G|----------------------7-----|----------12-11------------------------||
D|-----------5-4---7/s9---9-7-|-----/s12-------12---------------5-4---||
A|-3-2-----5-----5------------|-5-5---------------12--3-2-----5-----5-||
E|-----5-3--------------------|---------------------------5-3---------||


outro:                                  sequel to lavender
G||--------------------17---------17----||
D||---7-/s12-----14-15------14-15-------||
A||-------------------------------------||
E||-------------------------------------||


Comments