Marillion - Hooks In You Chords & Tabs

 

Hooks In You Chords & Tabs

Marillion Chords & Tabs

Version: 1 Type: Tab 0 ratings
1 star 2 stars 3 stars 4 stars 5 stars
comments

Hooks In You Tab

Hooks in You
Marillion

Intro
     i                                                                     
E||-----------------------|-----------------------|-----------------------|
B||-----------------------|-----------------------|-----------------------|
G||-----------------------|-----------------------|-----------------------|
D||--7-----4--5-----------|--7-----4--5-----------|--7-----4--5-----------|
A||--5--5--------3--5--7--|--5--5--------3--5--7--|--5--5--------3--5--7--|
E||-----------------------|-----------------------|-----------------------|


                                                                           
------------------------|-----------------------|-------------------------|
------------------------|-----------------------|-------------------------|
------------------------|-----------------------|----------5-----4--------|
--7---------------------|-------5----4----------|--7----5-----5-----5-----|
--5----5----3--5--3--7--|----5----------5----5--|----------------------5--|
------------------------|-----------------------|-------------------------|


                                                                              
--------------------------||-------------------------|-----------------------|
--------------------------||-------------------------|-----------------------|
--------------------------||*------------------------|-----------------------|
--------------------------||*--7---------------------|-------5----4----------|
--3--2--3--2--------2-----||---5----5----3--5--3--7--|----5----------5----5--|
--------------3--5-----5--||-------------------------|-----------------------|
[ Tab from: http://www.guitartabs.cc/tabs/m/marillion/hooks_in_you_tab.html ]
	                        Ending 1
                                                         
-------------------------|-----------------------------||
-------------------------|-----------------------------||
----------5-----4--------|--4-7-4--------4-7-4--------*||
--7----5-----5-----5--4--|--------5p0----------5p0----*||
-------------------------|-----------------------------||
-------------------------|-----------------------------||

		Ending 2
                                                                    
--------------------------|--------------------|-------------------|
--------------------------|--------------------|-------------------|
--------------------------|--------------------|-------------------|
--------------------------|--3------3----------|--------------3----|
--3--2--3--2--------2-----|--1------1----------|--------------1----|
--------------3--5-----5--|--------------------|-------------------|


                                                                              
-------------------|------------------|-------------------|------------------|
-------------------|-3-5-3-5-7-10-7b8-|-------------------|------------------|
-------------------|------------------|-------------------|------------------|
--5----------------|------------------|--3----------------|------------------|
--3----------------|------------------|--1----------------|------------------|
-------------------|------------------|-------------------|------------------|


                                                    
--------------------------|--------------------|--||
--------------------------|--------------------|--||
--------------------3--5--|--7r-----7----------|--||
--------------3--5--------|--------------------|--||
-----1--3--5--------------|--------------------|--||
--3-----------------------|--------------------|--||


Comments