Marillion - Heart Of Lothian Chords & Tabs

 

Heart Of Lothian Chords & Tabs

Marillion Chords & Tabs

Version: 1 Type: Bass Tab 0 ratings
1 star 2 stars 3 stars 4 stars 5 stars
comments

Heart Of Lothian Bass Tab

Standard Tuning

INTRO

|-----------------|-----------------|-----------------|-3---------2-----|
|-0---------------|-----------------|-----------------|-------------3---|
|-----------------|---------3-------|-1---------------|-----------------|
|-----------------|-----------------|-----------------|-----------------|

|-----------------|-----------------|-----------------|-3---------------|
|-----------------|-----------------|-------------3---|-----------------|
|-0---------------|-----------------|-1---------------|-----------------|
|-----------------|-----------------|-----------------|-----------------|

|-----------------|-----------------|-----------------|-----------------|
|-0---------------|-----------------|-----------------|-----------------|
|-----------------|-----------------|------------<5>--|-----------------|
|-----------------|---------8-------|-6---------------|-----------------|

|-----------------|-----------------|-----------------|-7---------------|
|-----------------|-----------------|-----------------|-----------------|
|-0---------------|-----------------|-------------8---|-----------------|
|-----------------|-----------------|-6---------------|-----------------|

|-----------------|-----------------|-----------------|-3---------2-----|
|-0---------------|-----------------|-----------------|-------------3-2-|
|-----------------|---------3-------|-1---------------|-----------------|
|-----------------|-----------------|-----------------|-----------------|

|-----------------|/5-----7-9-----\-|-------------2---|/7---------------|
|-----------------|-----------------|-----------3---3-|-----------------|
|-0---------------|-----------------|-1---------------|-----------------|
|-----------------|-----------------|-----------------|-----------------|

|-----------------|-7---------------|-------------2---|-----------------|
|-0-----------7-8-|-------------7-\-|---------------0-|-----------------|
|-----------------|-----------------|-1---------------|-0---------------|
|-----------------|-----------------|-----------------|-----------------|
              12    12                14    14          17 17 14 14 14
|---------------13|-----------------|-------*---------|-*---*-*-----*-\-|
|-0---------------|-*---------------|-*---------------|-----------*-----|
|-------------*-*-|-----------------|-----------------|-----------------|
|-----------------|-----------------|-----------------|-----------------|
             10 12         10                                  14
|-----------------|-9-----9---------|-------------5-7-|-9-------*-----\-|
|-8---------8-*-*-|--------*7-------|-----------8-----|-----------------|
|-----------------|---------------77|-----------------|-----------------|
|-----------------|-----------------|-6---------------|-----------------|
                           10
|-------------5-7-|-9-----9---------|-------------5-7-|-9---------------|
|-----------8-----|--------*7-------|-----------8-----|-----------------|
|-----------------|-------------7-\-|-----------------|-----------------|
|-6---------------|-----------------|-6---------------|-----------------|

|-----------------|-----------------|-----------------|-----------------|
|-----------------|-----------------|-----------------|-----------------|
|-----------------|-----------------|-----------------|-----------------|
|-----------------|-----------------|-----------------|-----------------|
          10                10  10                              10
|-----------------|---------*-9-----|-----------------|---------*-------|
|---0---7-*-------|---0---7-----*---|---------7-------|-------8---------|
|-----8-----------|-----8-----------|---0---7---------|-----8-----------|
|-----------------|-----------------|-----8-----------|---6-------------|
          10                10    10                            10
|-----------------|---------*--9----|-----------------|---------*-------|
|---0---7-*-------|---0---7-------*-|---------7-------|-----8-----------|
|-----8-----------|-----8-----------|---0---7---------|-------8---------|
|-----------------|-----------------|-----8-----------|---6-------------|
          10                10  10                              10
|-----------------|---------*-9-----|-----------------|---------*-----/-|
|---0---7-*-------|-0---7-------*---|-----7-----------|-------8---------|
|-----8-----------|---8-------------|-------7-0-------|-----8-----------|
|-----------------|-----------------|-----------------|---6-------------|

  14
|-*-------------|---------------|---------------|---------------||
|*--------------|---------------|---------------|--------------*||
|*--------------|---------------|---------------|--------------*||
|---------------|---------------|---------------|---------------||
                12  11
          12  14      12  14
|---------------*---*---------||
|*--------*---*-------*---*--*||  5x
|*0---0----------------------*||
|-----------------------------||

|--------0------|--------0------|--------0------|---222--0------|
|-----0-2--40-2-|-----0-2--40-2-|-----0-2--40-2-|------24--40-2-|
|-0-0-----------|-0-0-----------|-0-0-----------|-0-------------|
|---------------|---------------|---------------|---------------|

|-----2-22--|-----2-22--|-----2-22--|-----2-24-2|
|*---------2|----------2|----------2|-----------|
|*0-0-------|-0-0-------|-0-0-------|-0-0-------|
|-----------|-----------|-----------|-----------|
               
|-----2-22--|-----2-22--|-----2-22--|-----------||
|----------2|----------2|----------2|---0-4442-0||  3x
|-0-0-------|-0-0-------|-0-0-------|-0--------*||
|-----------|-----------|-----------|-----------||

HEART OF LOTHIAN

|-----------------|-----------------|-----------------|-----------------|
|-----------------|-----------------|-----------------|-----------------|
|-0-------0-------|-----------------|-----------------|-----------------|
|-----------------|-4-4-4---4-----4-|-2---------------|-0---------------|

|---------2-------|-2h4-------------|-----------------|-----------------|
|---------------2-|-----2---2-------|-0---0-----------|-----------------|
|-0---------------|---------------4-|---4-------------|-----------------|
|-----------------|-----------------|-------------2---|-0---------------|
[ Tab from: http://www.guitartabs.cc/tabs/m/marillion/heart_of_lothian_btab.html ]
|---------2-------|-2h4-------------|-----------------|-----------------|
|---------------2-|-----2---2-------|-0---0---0-------|-2---2---2-------|
|-0---------------|---------------4-|---4-----------2-|---------------2-|
|-----------------|-----------------|-----------------|-----------------|

|---------2-------|-2h4-------------|-----------------|-----------------|
|---------------2-|-----2---2-------|-0---0---0-2-4---|-2---------------|
|-0---------------|---------------4-|---4-------------|---------0-------|
|-----------------|-----------------|-----------------|-----------4-0---|

|---------2-------|-2h4-------------|-420-------------|-----------------|
|---------------2-|-----2---2-------|-----42--0---0---|---2-2-----2-2---|
|-0---------------|-----------------|-------4---------|-----------------|
|-----------------|-----------------|-----------------|-----------------|

|---------2-------|-2h4-------------|-----------------|-----------------|
|---------------2-|-----2---2-------|-0---0---0-2-4---|-2---------------|
|-0---------------|---------------4-|---4-------------|-----------------|
|-----------------|-----------------|-----------------|-----------------|

|---------2-------|-2h4-------------|-----------------|-----------------|
|---------------2-|-----2---2-------|-0---0-----------|-2---2-------2---|
|-0---------------|---------------4-|---4-----------2-|-----------2---4-|
|-----------------|-----------------|-----------------|-----------------|

|-----------------|-----------------|-----------------|-----------------|
|-----------------|-----------------|-----------------|-----------------|
|-0-------0-------|-----------------|-----------------|-----------------|
|-----------------|-4-4-4---4-----4-|-2---------------|-0---------------|
                                    *:14                               *:14
|---------2-------|-2h4-------------|-----------------|-----------------|
|---------------2-|-----2---2-------|-*-----***---*---|-*--***--***---*-|
|-0---------------|-------------4-/-|-----------------|----------------*|
|-----------------|-----------------|-----------------|-----------------|

CHORUS

|---------2-------|-2h4-------------|-----------------|-----------------|
|---------------2-|-----2---2-------|-0---0---0-------|-2---2---2-------|
|-0---0-----------|---------------4-|---4-----------2-|---------------2-|
|-----------------|-----------------|-----------------|-----------------|

|---------2-------|-2h4-------------|-2---------------|-----------------|
|---------------2-|-----2---2-------|---4-0---0-2-4---|-2-----2-2---2---|
|-0---0-----------|-----------------|-----------------|---------------2-|
|-----------------|-----------------|-----------------|-----------------|

|---------2-------|-2h4-------------|-----------------|-----------------|
|---------------2-|-----2---2-------|-0---0---0-------|-2---------------|
|-0---0-----------|---------------4-|---4-------------|-----2-/-7---7-4-|
|-----------------|-----------------|-----------------|-----------------|

|---------2-------|-2h4-------------|-----------------|-------------4---|
|---------------2-|-----2---2-------|-0---0---0-----0-|-2-2---2-2-------|
|-0---0-----------|---------------4-|---4-------------|-----------------|
|-----------------|-----------------|-----------------|-----------------|

|-----------------|-2h4-------------|-----------------|-----------------|
|---------------2-|-----2---2-------|-0---0---0-2-4---|-2---------------|
|-0-------0-------|---------------4-|---4-------------|---------0-------|
|-----------------|-----------------|-----------------|-----------4-0---|

|---------2-------|-----------------|-----------------|-----------------|
|-----------------|-----------------|-0---2---4-------|-2---------------|
|-0---------------|-----------------|-----------------|-----------------|
|-----------------|-4---------------|-----------------|-----------------|

|-----------------|-----------------|-----------------|
|-----------------|-----------------|-----------------|
|-0---------------|-----------------|---------------0-|
|-----------------|-----------------|-----------------|

|-----------------|-----------------|-----------------|
|-----------------|-----------------|-----------7-7---|
|-0-0-------------|-----------------|-----------------|
|-----------------|-----------------|-----------------|

|-------------------------|-------------------------|
|-7-----------------------|-------------------------|
|-------------------------|-------------------------|
|-------------------------|-------------------------|

|-------------------------|-------------------------|         
|-------------------------|-7-----------------------|
|-------------------------|-------------------------|
|-------------------------|-------------------------|

|-------------------------|-------------------------|
|-------------------------|-------------------------|
|-7-----------------------|-------------------------|
|-------------------------|-------------------------|

|-----------------------6-|-7-------------------7-6-|
|-7-------------------7---|-------------------------|
|-------------------------|-------------------------|
|-------------------------|-------------------------|

|-------------------------|-------------------------|
|-7-----------------------|-------------------------|
|-------------------------|-9-----------------------|
|-------------------------|-------------------------|

|-------------------------|-------------7-----6-----|
|-------------------------|-0-------------------7---|
|-7-----------------------|-------------------------|
|-------------------------|-------------------------|

|---------------------6---|-------------------------|
|-------------------------|-------------------------|
|-9-----------------------|-7-----------------------|
|-------------------------|-------------------------|

|-------------------------|-----------------9-------|
|-------------------------|-6-------------------6---|
|-9-----------------------|-------------------------|
|-------------------------|-------------------------|
                  14  13    14
|---------------------*---|-*-----------------------||
|-----------------*-------|-------------------------||
|-0-----------------------|-------------------------||
|-------------------------|-------------------------||
Comments