Marillion - Childhoods End Chords & Tabs

 

Childhoods End Chords & Tabs

Marillion Chords & Tabs

Version: 1 Type: Bass Tab 0 ratings
1 star 2 stars 3 stars 4 stars 5 stars
comments

Childhoods End Bass Tab

   
Standard Tuning

INTRO

|-----------------|-----------------|-----------------|-----------------|
|-----------------|-----------------|-----------------|-----------------|
|-0---------------|-----------------|-----------------|-----------------|
|-----------------|-----------------|-----------------|-----------------|
                                                                
|-----------------|-----------------|-----------------|-----------------|
|-7-7-7-7-7-7-7-7-|-7-7-7-7-7-7-7-7-|-7-7-7-7-7-7-7-7-|-7-7-7-7-7-7-7-7-|
|-----------------|-----------------|-----------------|-----------------|
|-----------------|-----------------|-----------------|-----------------|

|-----------------|-------6---9-6-\-|
|-7-7-7-7-7-7-7-7-|-7-7-7-----------|
|-----------------|-----------------|
|-----------------|-----------------|

VERSE

|-----------------|-----------------|-----------------|-----------------|
|-0---0-----------|-0-2---4---0-----|-----------------|-------4---------|
|---------------0-|-------------0-0-|-----------------|---0-4-----4-0-0-|
|-----------------|-----------------|-2---2-----------|-----------------|

|-----------------|-----------------|-----------------|-----------------|
|-----------------|-4-----2---0-----|-----------------|-----------------|
|-2---2-----------|-------------2-0-|-----------------|-------0-------2-|
|-----------------|-----------------|-3---3-----------|-3---------------|

|-----------------|-----------------|-----------------|-----------------|
|-0---0-----------|-0-2---4---0-----|-----------------|-------4---0-----|
|---------------0-|-------------0-0-|-----------------|---0-4-------0---|
|-----------------|-----------------|-2---2-----------|-----------------|
                           h
|-----------------|-----2-----------|-----------------|-----------------|
|-----------------|-4-----34--0-----|-----------------|-----------------|
|-2---2-----------|-------------2-0-|-----------------|---------------0-|
|-----------------|-----------------|-3---3-----------|-2-----0---------|
                                                        
|-----------------|-----------------|-----------------|-----------------|
|-0---0-----------|-0-2---4---------|-----------------|-------4---------|
|---------------0-|---------------0-|-----------------|-----4---------0-|
|-----------------|-----------------|-2---2-----------|-----------------|

|-----------------|-----------------|-----------------|-------4---2-2---|
|-----------------|-4-----2---0-----|-----------------|---------------4-|
|-2---2-----------|---------------0-|-----------------|-----------------|
|-----------------|-----------------|-3---3-----------|-3---------------|

|-----------------|-----------------|-----------------|-----------------|
|-0---0-----------|-0-2---4---0-----|-----------------|-------4---------|
|---------------0-|-------------0-0-|-----------------|-----4---------0-|
|-----------------|-----------------|-2---2-----------|-----------------|

|-----------------|-----------------|-----------------|-----------------|
|-----------------|-------2---0-----|-----------------|---------------0-|
|-2---2-----------|-------------2-0-|-----------------|-------0-----2---|
|-----------------|-----------------|-3---3-----3-----|-3---------------|

CHORUS

|-----------------|-----------------|-----------------|-----------------|
|-2---2-2---2-----|-2---2-2---------|-0---0-0---0-----|-0-----0---0-----|
|---------2-------|---------0-0-----|---------4-------|---------4-------|
|-----------------|-----------------|-----------------|-----------------|

|-----------------|-----------------|-----------------|-----------------|
|-----------------|-----0-2-4-------|-2---2-2---2-----|-2-2---2---------|
|-2-----2-0-2-----|-2---------------|---------2-------|-----4---4-2-----|
|-----------------|-----------------|-----------------|-----------------|

|-----------------|-----------------|-----------------|-----------------|
|---------0-2-----|-----------------|-0---0-0---0-----|-0---0-0---0-----|
|-----------------|---------0-0-----|---------4-------|---------4-----0-|
|-0---0-0---------|-0---0-0---------|-----------------|-------------2---|

|-----------------|-----------------|-----------------|-1-----4---1-----|
|-----------------|-----0-2-4-------|-2---2-----2-----|-------------2---|
|-2-----2-0-2-----|-2---------------|-----------------|-----------------|
|-----------------|-----------------|-----------------|-----------------|

VERSE

|-----------------|-----------------|-----------------|-----------------|
|-0---------------|-0-2---4---------|-----------------|-------4---------|
|---------------0-|---------------0-|-----------------|-----4---------0-|
|-----------------|-----------------|-2---2-----------|-----------------|

|-----------------|-----------------|-----------------|-----------------|
|-----------------|-------4---------|-----------------|-----------------|
|-2---2-----------|-2-------------0-|-----------------|-------0-------2-|
|-----------------|-----------------|-3---3-----------|-2---------------|

|-----------------|-----------------|-----------------|-----------------|
|-0---0-----------|-0-2---4---------|-----------------|-------4---------|
|---------------0-|---------------0-|-----------------|-----4---------0-|
|-----------------|-----------------|-2---2-----------|-----------------|
                                                         h
|-----------------|-----------------|-----------------|-24----2---0-----|
|-----------------|-4-----2---0-----|-----------------|-------------4---|
|-2---2-----------|-------------2-2-|-----------------|-----------------|
|-----------------|-----------------|-3---3-----------|-----------------|

|-----------------|-----------2-----|-----------------|-----------------|
|-0---0-----------|-0-2---4-----4-0-|-----------------|-------4---------|
|---------------0-|-----------------|-----------------|---0-4-----4-0-0-|
|-----------------|-----------------|-2---2-----------|-----------------|

|-----------------|-----------------|-----------------|-------4---2-----|
|-----------------|-4-----2---0-----|-----------------|-------------4---|
|-2---2-----------|-------------2-0-|-----------------|-----------------|
|-----------------|-----------------|-3---3-----------|-----------------|

|-----------------|-----------------|-----------------|-----------------|
|-0---0-----------|-0-2---4---------|-----------------|-------4---------|
|---------------0-|---------------0-|-----------------|-----4---------0-|
|-----------------|-----------------|-2---2-----------|-----------------|

|-----------------|-----------------|-----------------|-----------------|
|-----------------|-4-----2---0-----|-----------------|-------0-------1-|
|-2---2-----------|-------------2-0-|-----------------|-2---------2-4---|
|-----------------|-----------------|-2---2-----2-----|-----------------|

CHORUS

|-----------------|-----------------|-----------------|-----------2-----|
|-2-----2---2-----|-2---2-2---------|-0-----0---0-----|-0---0-0-4---4-0-|
|---------2-------|---------0-0-----|---------4-------|-----------------|
|-----------------|-----------------|-----------------|-----------------|

|-----------------|-----------------|-----------------|-----------------|
|-----------------|-----0-2-4-------|-2-----2---2-----|-2-2---2---------|
|-2-----2-0-2-----|-2---------------|---------2-------|-----4---4-2-2---|
|-----------------|-----------------|-----------------|---------------4-|

|-----------------|-----------------|-----------------|-----------------|
|---------0-2-----|-----------------|-0---0-0---0-----|-0---0-0---0---0-|
|-----------------|---------0-0-----|---------4-------|---------4---4---|
|-0---0-0---------|-0---0-0---------|-----------------|-----------------|
                                                        11
|-----------------|-----------------|-----------------|-*-9---9-6-------|
|-----------------|-----0-2-4-------|-----------------|-----------9-6---|
|-2-----2-0-2-----|-2-------------9-|-7---7-7-7---7-7-|---------------9-|
|-----------------|-----------------|-----------------|-----------------|
[ Tab from: http://www.guitartabs.cc/tabs/m/marillion/childhoods_end_btab.html ]
|-----------------|-----------------|-----------------|-----------------|
|-----------------|-----------------|-0-----0---0-----|-0---0-0---0-----|
|-7-7---7-7-------|---------0-0-----|---------4-------|---------4-----0-|
|-------------0---|-----0-0---------|-----------------|-------------2---|

|-----------------|-----------------|-----------------|-----------------|
|-----------------|-----------------|-----------------|-----------------|
|-2---2-2-0-2-----|-2---2-2-2---2-/-|-7---7-7-7---7-7-|-7-7-7-7-7-7-7-7-|
|-----------------|-----------------|-----------------|-----------------|

|-----------------|-----------------|-----------------|-----------------|
|-----------------|-----------------|-0---0-0---0-----|-0---0-0---------|
|---------7-7-\---|---------0-0-----|---------4-----4-|---------4-5-\---|
|-0-----0---------|-0-----0---------|-----------------|-----------------|

|-----------------|-----------------|-----------------|-----------------|
|-----------------|-----------------|-----------------|-2-2-2-2-2-------|
|-2-----2-0-2-----|-2---2-----------|-----------------|-------------4-2-|
|-----------------|-------4-2-------|-0-0-0-0-0-0-0-0-|-----------------|

SOLO

|-----------------|-----------------|-----------------|-----------------|
|---------0-2-----|-----------------|-0---0-0---0---0-|-0---0-0---0-----|
|-----------------|---------0-0-----|---------4-------|---------4-------|
|-0---0-0---------|-0---0-0---------|-----------------|-----------------|

|-----------------|-----------------|-----------------|-----------------|
|-----------------|---------4-4---4-|-2---2-2---2-----|-2---2-2-2-------|
|-2-----2-0-2-----|-2---2-2---------|---------2-------|-----------4-2---|
|-----------------|-----------------|-----------------|---------------4-|

|-----------------|-----------------|-----------------|-----------2-----|
|---------0-2-----|-----------------|-0---0-0---0---0-|-0---0-0-4---4-0-|
|-----------------|---------0-0---0-|---------4-------|-----------------|
|-0---0-0---------|-0---0-0---------|-----------------|-----------------|

|-----------------|-----------------|-----------------|-------6---4-2-2-|
|-----------------|-----0-2-4-----4-|-2---2-----2-----|-2---------------|
|-2---2-2-0-2---0-|-2---------------|-----------------|-----------------|
|-----------------|-----------------|-----------------|-----------------|

VERSE

|-----------------|-----------------|-----------------|-----------------|
|-0---0-----------|-0-2---4---0-----|-----------------|-------4---------|
|---------------0-|-------------0-0-|-----------------|-----------4-0---|
|-----------------|-----------------|-2---2-----------|-2---------------|

|-----------------|-----------------|-----------------|-------6---4-2---|
|-----------------|-----4-2---0-----|-----------------|-----------------|
|-2---2-----------|-2-----------2-0-|-----------------|-----------------|
|-----------------|-----------------|-3---3-----------|-3---------------|

|-----------------|-----------------|-----------------|-----------------|
|-0---0-----------|-0-2---4---0-----|-----------------|-------4---------|
|---------------0-|-------------0-0-|-----------------|---0-4-----4-0-0-|
|-----------------|-----------------|-2---2-----------|-----------------|

|-----------------|-----------------|-----------------|-----------------|
|-----------------|-----4-2---0-----|-----------------|-----------------|
|-2---2-----------|-------------2-0-|-----------------|-------------0-0-|
|-----------------|-----------------|-3---3-----------|-2-----0---------|

|-----------------|-----------------|-----------------|---7/6-----------|
|-0---0-----------|-0-2---4---0-----|-----------------|---------4---0---|
|---------------0-|-------------0-0-|-----------------|---------------0-|
|-----------------|-----------------|-2---2-----------|-----------------|

|-----------------|-----2-----------|-----------------|-------4---2-----|
|-----------------|-4-----4---0-----|-----------------|-------------4-4-|
|-2---2-----------|-------------2-0-|-----------------|-----0-----------|
|-----------------|-----------------|-3---3-----------|-----------------|

|-----------------|-----------------|-----------------|-----------------|
|-0---0-----------|-0-2---4---0-----|-----------------|-------4---------|
|---------------0-|-------------0-0-|-----------------|-----4-----4-0-0-|
|-----------------|-----------------|-2---2-----------|-----------------|

|-----------------|-----------------|-----------------|-----------------|
|-----------------|-4---2-0---------|-----------------|---------------0-|
|-2---2-----------|-----------2---0-|-----------------|-------2-----4---|
|-----------------|-----------------|-3---3-----3-----|-3---------------|

CHORUS

|-----------------|-----------------|-----------------|-----------------|
|-2-----2---2-----|-2---2-2---------|-0-----0---0-----|-0-----0---------|
|---------2-------|---------0-0-----|---------4-------|---------4-5---\-|
|-----------------|-----------------|-----------------|-----------------|

|-----------------|-----------------|-----------------|-----------------|
|-----------------|---------4-------|-2-----2---2---2-|-2-2---2---------|
|-2-----2-0-2---2-|-2---2-2-------0-|---------2-------|-----4---4-2-----|
|-----------------|-----------------|-----------------|-------------4-2-|

|-----------------|-----------------|-----------------|-----------------|
|---------0-2-----|-----------------|-0-----0---0---0-|-0-----0---------|
|-----------------|---------0-0-----|---------4-------|---------4-5---\-|
|-0---0-0---------|-0---0-0---------|-----------------|-----------------|

|-----------------|-----------------|-----------------|-----------------|
|-----------------|-------2-4-------|-2-------2-------|-2---------------|
|-2-----2-0-2-----|-2---------------|-------2-------2-|-------2-4---2---|
|-----------------|-----------------|-----------------|---------------4-|

|-----------------|-----------------|-----------------|---------6-------|
|---------0-2-----|-----------------|-0-----0---0-----|-0---0-----7-\---|
|-----------------|---------0-0-----|---------4-------|-------0---------|
|-0---0-0---------|-0---0-0---------|-----------------|-----------------|

|-----------------|-----------------|-----------------|-----------------|
|-----------------|---------4-4---4-|-2---2-2-2-2---2-|-2-2---2---------|
|-2-----2-0-2-----|-2---------------|-----------------|-----4---4---2---|
|-----------------|-----------------|-----------------|---------------4-|

|-----------------|-----------------|-----------------|-----------------|
|---------2-------|-----------------|-0-----0---0---0-|-0---------------|
|-----------------|---------0-0-----|---------4-------|-------------0---|
|-0-0---0-----0---|-----0-0---------|-----------------|-------2---2-----|

|-----------------|-----------------|-----------------|-----------------|
|-----------------|-------2-4-4-----|-2---2-2---2-----|-2-2---2---2-----|
|-2-----2-0-2-----|-2---------------|---------4-----4-|-----4---4---4-2-|
|-----------------|-----------------|-----------------|-----------------|

|-----------------|-----------------|-----------------|-----------------|
|---------0-2-----|-----------------|-0---0-0---0---0-|-0---0-0---------|
|-----------------|---------0-0-----|---------4-------|---------4-5---\-|
|-0---0-0---------|-0---0-0---------|-----------------|-----------------|

|-----------------|---------4-\-----|-----------------|-----------------|
|-----------------|-----0-2---------|-2---2-2---2---2-|-2---2-----------|
|-2---2-2-0-2-----|-2---------------|---------4-------|---4---4-2-------|
|-----------------|-----------------|-----------------|-----------4-\---|

|-----------------|-----------------|-----------------|-----------2-----|
|---------0-2-----|-----------------|-0-----0---0-----|-0---0-0-4---4---|
|-----------------|---------0-0-----|---------4-------|-----------------|
|-0---0-0---------|-0---0-0---------|-----------------|-----------------|
                    11    11
|-----------------|-*---9-----------|-----------------|-----------------|
|-----------------|-------*-9-------|-----------------|-----------------|
|-2-----2-0-2---0-|-----------------|-7-7---7-7-7---7-|-9-7---7---7-----|
|-----------------|---------------9-|-----------------|-----9---9---9-7-|

|-----------------||
|-----------------||
|-0---------------||
|-----------------||
Comments